PrimaNota.ru - самый крупный в мире бесплатный архив песенных текстов, аккордов, табулатур и нот


Drake Bell - What You Need - аккорды и текст, таба, видео

Регистрация Запомнить меня
Войти через:  Facebook Google Twitter Vk Yandex Mail.ru

Drake Bell - What You Need - аккорды и текст, таба, видео

Печатать
Просмотров: 238
Уроки эстрадного вокала в Санкт-Петербурге
What You Need
Drake Bell
Whenever I listen to the song, in the 2nd verse, I hear "I forbid her amplified" which 
doesn't make as much sense as "I'll feel better amplified" but I guess it's all up to you 
and how you hear the song.
This song might not be on Drake Bell's album but due to the fact that it was leaked onto 
YouTube, I thought I'd have a go at tabbing the song for those who want to learn it.
I'll upload the riff played at the intro which is repeated at intervals in the song once 
I figure out an easy way to play it.

Chords:
    G Em7 A7 D Am7 C
e|--3--3--3--2--3--0--|
B|--3--3--2--3--1--1--|
G|--0--0--2--2--2--0--|
D|--0--2--2--0--2--2--|
A|--2--2--0--0--0--3--|
E|--3--0--x--x--x--x--|


Intro:
      G             Em7       A7            D
e|----------------------------------0-3-0----------------------|
B|-------------8------------------2-------2-3-1-0--------------|
G|----0000-4-7---7-4--0-4-9---2222----------------2-0----------|
D|-------------------2--------------------------------4-2-0----|  x2
A|-------------------------------------------------------------|
E|-------------------------------------------------------------|

Verse 1:
G                            Em7
  We've done this many times,   take you all over town
A7                            D
  Stay up late at night, just hoping we might fool around
G                      Em7
  I gave you everything   now show me what to do
A7                             D
  I bet you really think that I'm just here to f**k with you

Chorus 1:
  G      Em7                 Am7
  I know what you need, know what you need
      D
  You need for me to tell you that
  G     Em7                Am7
  I got what you need, got what you need
      D
  But I could never tell you that

Break:
      G             Em7       A7            D
e|----------------------------------0-3-0----------------------|
B|-------------8------------------2-------2-3-1-0--------------|
G|----0000-4-7---7-4--0-4-9---2222----------------2-0----------|
D|-------------------2--------------------------------4-2-0----|
A|-------------------------------------------------------------|
E|-------------------------------------------------------------|


Verse 2:
G                         Em7
  You say that you believe  in trading one for two
A7                              D
  You never thought of me - too bad I always think of you
G                      Em7
  You are the generator - I am electrified
A7                     D (strum once)
  See me a little later I *forbid her* amplified

Chorus 1:
  G      Em7                 Am7
  I know what you need, know what you need
      D
  You need for me to tell you that
  G     Em7                Am7
  I got what you need, got what you need
      D
  But I could never tell you that

Chorus 2:
  G      Em7                 Am7
  I know what you need, show what you need
      D
  You need for me to tell you that
  G     Em7                Am7
  I got what you need, got what you need
      D
  But I could never tell you that

Break:
      G             Em7       A7            D
e|----------------------------------0-3-0----------------------|
B|-------------8------------------2-------2-3-1-0--------------|
G|----0000-4-7---7-4--0-4-9---2222----------------2-0----------|
D|-------------------2--------------------------------4-2-0----|
A|-------------------------------------------------------------|
E|-------------------------------------------------------------|

Bridge:
C                          G
  If you could say it once,  I'll say it all the time
D                                G
  But something's getting in the way (Ooh-ooh-ah-ah)
C                   G
  If I am so afraid  then you won't hear it back
D
  And I will never know 'cause I could never tell you that
N/C
 (I could never tell you that) no, I could never tell you that

Chorus 1:
  G      Em7                 Am7
  I know what you need, know what you need
      D
  You need for me to tell you that
  G     Em7                Am7
  I got what you need, got what you need
      D
  But I could never tell you that

Chorus 2:
  G      Em7                 Am7
  I know what you need, show what you need
      D
  You need for me to tell you that
N/C
  No, I could never tell you that

Chorus 1:
  G      Em7                 Am7
  I know what you need, know what you need
      D
  You need for me to tell you that
  G     Em7                Am7
  I got what you need, got what you need
      D
  But I could never tell you that

Chorus 2:
  G      Em7                 Am7
  I know what you need, show what you need
      D
  You need for me to tell you that
  G     Em7                Am7
  I got what you need, got what you need
     N/C
  But I could never tell you that


----------GUITAR 2/LEAD GUITARIST------------------------

If you have another guitarist playing with you, 
as well as playing the riff that's heard during 
the intro and breaks, they could play this whilst 
the rhythm guitarist is playing just the chords 
during the choruses.
I thought I'd include this just because it sound
nice having two guitar parts playing different things. :)

   G       Em      Am7     D
e|----------------------------------|
B|-88888888888888888888888877777777-|
G|-77777777999999999999999977777777-|
D|----------------------------------|
A|----------------------------------|
E|----------------------------------|
Добавлено: 25.02.2012
Другие материалы по этой песне:
  • Аккорды и текст

Страница создана 25.02.2012
http://primanota.ru/drake-bell/what-you-need-chords.htm
Привет, Гость.
Предлагаем пройти революционный курс по гитаре.
Подарок от PrimaNota.Ru, забирай!