PrimaNota.ru - самый крупный в мире бесплатный архив песенных текстов, аккордов, табулатур и нот


Drake Bell - Circles - текст песни, таба, видео

Регистрация Запомнить меня
Войти через:  Facebook Google Twitter Vk Yandex Mail.ru

Drake Bell - Circles - текст песни, таба, видео

Печатать
Просмотров: 151
Уроки эстрадного вокала в Санкт-Петербурге
Hey, there wasn't a full tab on UG for this song so...sit by a beach, relax and enjoy 
the tab! It's 100% tabbed to the link below (Drake Bell playing it live) but let me know 
if there are any corrections!

Artist: Drake Bell
Song: Circles (Acoustic)
Album: Telegraph
Tuning: Standard

http://www.youtube.com/watch?v=Inc0k6FzpXI&feature=related

Intro (Album Version)

e |-0---x---x---x------|
B |-0---x---x---x------|
G |-1---4---2---4------|
D |-2---2---2---2------|
A |-2---2---2---2------|
E |-x---2---x---2------|

e |-x--------------------|
B |-x--------------------|
G |-x--------------------|
D |-x--------------------|
A |-x--------------------|
E |-x--\b3---------------|

Verse 1

e |-0-------x---x---x------|
B |-0-h3p---x---x---x------|
G |-1-------4---2---4------|
D |-2-------2---2---2------|
A |-2-------2---2---2------|
E |-x-------2---x---2------|

Here we are at this party
Everything is going down
Music's playing loud
Keep the pressure off my coffee table
Momma said it's not loud
Girls are laughing way too loud
Jocks stand around
Oh damn they look so proud
A dude is spinning records
Like a stupid fool that won't stop
Quiet, quiet, baby
My ears are about to pop
Look who just walked through the door
It's Brian back from the store
To show the party he can
Break it just a little more

Chorus

e |-0---0---2---0-------|
B |-0---0---4---0-------|
G |-1---2---4---2-------|
D |-2---2---4---2-------|
A |-2---0---2---0-------|
E |-x---x---0---0-------|

Hope there's more to life than this
I'm sure there's more to life than just...

e |-x--------------------|
B |-x--------------------|
G |-x--------------------|
D |-x--------------------|
A |-x--------------------|
E |-x--\b3---------------|


e |-0---0---2---0-------|
B |-0---0---4---0-------|
G |-1---2---4---2-------|
D |-2---2---4---2-------|
A |-2---0---2---0-------|
E |-x---x---0---0-------|

Spinning in circles
You got me spinning in circles

Verse 2

e |-0-------x---x---x------|
B |-0-h3p---x---x---x------|
G |-1-------4---2---4------|
D |-2-------2---2---2------|
A |-2-------2---2---2------|
E |-x-------2---x---2------|

Hey there little girl
Haven't seen you for some time
How's life been
Is it good, is it bad, is it fine (so fine)
Sorry gotta make my rounds
See you when it dies down
Music so loud
Hell, your voice is drown

Chorus

Solo Chords

e |-0---0---2---0-------|
B |-0---0---4---0-------|
G |-1---2---4---2-------|
D |-2---2---4---2-------|
A |-2---0---2---0-------|
E |-x---x---0---0-------|

Bridge 1

e |-0-------x---x---x------|
B |-0-h3p---x---x---x------|
G |-1-------4---2---4------|
D |-2-------2---2---2------|
A |-2-------2---2---2------|
E |-x-------2---x---2------|

Now that the party's over
Hope everybody leaves here sober
Don't forget your lovely coat
I'm so relieved that nothing broke

e |-0-------x-------|
B |-0-h3p---x-------|
G |-1-------4-------|
D |-2-------2-------|
A |-2-------2-------|
E |-x-------2--2/---|

Whoa whoa stop right here,

e |----x---x------|
B |----x---x------|
G |----2---4------|
D |----2---2------|
A |----2---2------|
E |----x---2------|

What do you know
She just...

Bridge 2

e |-0---2----0-------|
B |-0---4----0-------|
G |-8---4----2-------|
D |-6---4----2-------|
A |-7---2----0-------|
E |-x---x----0-------|

Brought me another one
Just like the other one
Sorry pretty baby but I think I'm done
You better slow down girl
You look a little wired
I gonna slow down myself
'Cause I'm a little tired

Chorus

Outro

e |-----------------------|
B |-------8---------------|
G |----------6/8----------|
D |----6----------7---7---|
A |-7---------------8-----|
E |-----------------------|
Добавлено: 02.07.2013
Другие материалы по этой песне:
  • Аккорды и текст

Страница создана 07.04.2012
http://primanota.ru/drake-bell/circles-chords.htm
Привет, Гость.
Предлагаем пройти революционный курс по гитаре.
Подарок от PrimaNota.Ru, забирай!