PrimaNota.ru - самый крупный в мире бесплатный архив песенных текстов, аккордов, табулатур и нот


Drake Bell - Wrong Side Of The Sun - аккорды и текст, таба, видео

Регистрация Запомнить меня
Войти через:  Facebook Google Twitter Vk Yandex Mail.ru

Drake Bell - Wrong Side Of The Sun - аккорды и текст, таба, видео

Печатать
Просмотров: 93
Wrong Side Of The Sun
Drake Bell
Wrong Side of the Sun by Drake Bell
Album: Nashville Sessions

Tabbed by alex_72886



CHORDS USED:

  Dsus2 Dsus2/B Dsus2/C  Asus4   D    Bm7    A    Gm7    C7   F#m    Bm
e/---0-----0-----0--------0-----2-----2-----0-----3-----0-----2-----2-----|
B/---3-----3-----3--------3-----3-----3-----2-----3-----0-----2-----3-----|
G/---2-----2-----2--------2-----2-----2-----2-----3-----0-----2-----4-----|
D/---0-----x-----x--------2-----0-----4-----2-----3-----2-----4-----4-----|
A/---x-----2-----3--------0-----x-----2-----0-----5-----2-----4-----2-----|
E/---x-----x-----x--------x-----x-----x-----x-----3-----0-----2-----x-----|


     G7    Am    C#    C     Bb   Em/A
e/---3-----0-----x-----0-----1-----0-----|
B/---3-----1-----6-----1-----3-----0-----|
G/---4-----2-----6-----0-----3-----0-----|
D/---3-----2-----6-----2-----3-----2-----|
A/---5-----0-----4-----3-----1-----0-----|
E/---3-----x-----x-----x-----x-----x-----|



Intro:

Dsus2  Dsus2/B  Dsus2/C  Asus4-A-Em/A-A


Verse I:

     D              Bm7
It's just another day
     A
Like any other day
      Gm7            C7
Til I opened up the shades
    D                F#m
And it was black as night
       Bm
And I don't know what I've done
       G7             C7               
But I woke up on the wrong 
             Dsus2 Dsus2/B Dsus2/C Asus4-A-Em/A-A
Side of the sun



Verse II:

        D                Bm7 
Was it something that I said
 A                  
Something that I did
      Gm7             C7
That got inside your head
 D               F#m
Made you walk away
          Bm
'Cause I don't know what I've done
      G7              C7
But I woke up on the wrong 
             D  D-C#
Side of the sun



Chorus:

  C
I still don't have a reason
      Bm
And I hope that I'm dreamin'          
           Bb                          D   D-C#
'Cause it looks like you're leavin' me now

    C
My world won't stop turnin'
     Bm
And left me here learnin'
    Bb                           A
To live with the darkness I've found



Verse III:

 D             Bm7
Must be some mistake
      A
This isn't how it ends
    Gm7                      C7
My heart's not supposed to break
  D                   F#m
Someone shed some light
          Bm
'Cause I don't know what I've done
      G7              C7
But I woke up on the wrong 
             D  D-C#
Side of the sun



Chorus:

  C
I still don't have a reason
      Bm
And I hope that I'm dreamin'          
           Bb                          D   D-C#
'Cause it looks like you're leavin' me now

    C
My world won't stop turnin'
     Bm
And left me here learnin'
    Bb                           A
To live with the darkness I've found



Instrumental:

Dsus2 Dsus2/B Dsus2/C Asus4-A-Em/A-A (x2)


p = pull off
/ = slide up
\ = slide down



   Dsus2           Dsus2/B    Dsus2/C 
e/------------------------------------------|
B/--5/7--7--7/8-8--5-5-5/7-7----------------|
G/----------------------------7-7--5--4--2--|
D/------------------------------------------|
A/------------------------------------------|
E/------------------------------------------|


   Asus4-A-Em/A-A        Dsus2        Dsus2/B
e/-------------------------------------------------|
B/--3p2---3p2---3p2-----/7-7-8--8/10--12-12/15-15--|
G/------2-----2-----2------------------------------|
D/-------------------------------------------------|
A/-------------------------------------------------|
E/-------------------------------------------------|



       Dsus2/C             Asus4-A-Em/A-A
e/----------------------------------------------------17\--|
B/--15-15/17-17--15--15\---15p14----15p14----15p14---------|
G/-------------------------------14-------14-------14------|
D/---------------------------------------------------------|
A/---------------------------------------------------------|
E/---------------------------------------------------------|


         
Verse IV:

     D              Bm7
It's just another day
     A
Like any other day
      Gm7            
Til I opened up the shades


D  Bm7
   Whoa
 Asus4
Don't know what I've done
       Gm7            C7               
But I woke up on the wrong 
             D     Bm7
Side of the sun  Mmhmm
       Asus4
And I don't know what I've done
       Gm7            C7
But I woke up on the wrong 
             D  Bm7
Side of the sun

 Asus4     
Don't know what I've done
       Gm7            C7
But I woke up on the wrong 
              D  Bm7
Side of the sun 

       Asus4
And I don't know what I've done
       Gm7            C7
But I woke up on the wrong 
             D  Bm7
side of the sun
 Asus4  Gm7 C7
Yeah

D Bm7 Asus4 Gm7 C7 D fade out

Добавлено: 17.05.2012
Другие материалы по этой песне:
  • Аккорды и текст

Страница создана 17.05.2012
http://primanota.ru/drake-bell/wrong-side-of-the-sun-chords.htm
Привет, Гость.
Предлагаем пройти революционный курс по гитаре.
Подарок от PrimaNota.Ru, забирай!