PrimaNota.ru - самый крупный в мире бесплатный архив песенных текстов, аккордов, табулатур и нот


Down - Lysergic Funeral Procession - таба, видео

Регистрация Запомнить меня
Войти через:  Facebook Google Twitter Vk Yandex Mail.ru

Down - Lysergic Funeral Procession - таба, видео

Печатать
Просмотров: 83
Song: Lysergik Funeral Procession
Artist: Down
Album: Down II - A Bustle in your Hedgerow


Tabbed by Leooooh666

Tunning: C# F# B E G# C# 

b  - bend
v  - vibrato
pb - prebend
r  - release bend
/\ - slides (self explanatory)
h  - hammer on
p  - pull off
PM - Palm Mute
g  - grace note
ph - pinch harmonic
tr - trill
=  - tremelo pick
.  - Stoccato/Palm Mute


INTRO

Guitar I and II (2x)
|-----------------------------------------------------------------------------------|
|-----------------------------------------------------------------------------------|
|-----------------------------------------------------------------------------------|
|-----------------------------------------------------------------------------------|
|---7---10--------------------------------------7---10------------------------------|
|------------10---7v--7-7-7-7v---5v---5---3v-------------7v--7-7-7-7---5v---5---3v--|



  Guitar I (2x)
|-----------------------------------------------------------------------------------|
|-----------------------------------------------------------------------------------|
|-----------------------------------------------------------------------------------|
|-----------------------------------------------------------------------------------|
|---7---10--------------------------------------7---10------------------------------|
|------------10---7v--7-7-7-7v---5v---5---3v-------------7v--7-7-7-7---5v---5---3v--|
|                                                                                   |
|                                                                                   |
|  Guitar II                                                                        |
|-----------------------------------------------------------------------------------|
|-----------------------------------------------------------------------------------|
|---9b(10)r(9)--8v--8-8h9--9--7-7h9-7-6v------9b(10)r(9)--8v--8-8h9--9--7-7h9-7--6v-|
|-----------------------------------------------------------------------------------|
|-----------------------------------------------------------------------------------|
|-----------------------------------------------------------------------------------|




PRE VERSE

 Guitar I
|-------------------------------------------------------------------------------|
|-------------------------------------------------------------------------------|
|-------------------------------------------------------------------------------|
|----------5-------------5p4-----------------5-------7b(8)r(7)-7b(8)r(7)--5v----|
|-------------7v--------------5-5s7v-------------7v-----------------------------|
|---0h5h7---------0h5h7---------------0h5h7-------------------------------------|


 Guitar I
|-------------------------------------------------------------------------------|
|-------------------------------------------------------------------------------|
|-------------------------------------------------------------------------------|
|----------5-------------5p4------------------5------------7---7/9--------------|
|-------------7v--------------5-5s7v-------------7v--------5---5/7--------------|
|---0h5h7---------0h5h7----------------0h5h7----------0--0---0------------------|
|                                                                               |
|                                                                               |
| Guitar II                                                                     |
|-------------------------------------------------------------------------------|
|-------------------------------------------------------------------------------|
|-------------------------------------------------------------------------------|
|----------------------------------------------------------7---7/9--------------|
|---2-------------2--------------------2-------------------5---5/7--------------|
|---0-------------0--------------------0--------------0--0---0------------------|
    PM[           .                    .              .  .   . ]



VERSE 1 (2x)

 Both Guitars
|-------------------------------------------------------------------------------|
|-------------------------------------------------------------------------------|
|-------------------------------------------------------------------------------|
|----------5-------------5p4-----------------5-------7b(8)r(7)-7b(8)r(7)--5v----|
|-------------7v--------------5-5s7v-------------7v-----------------------------|
|---0h5h7---------0h5h7---------------0h5h7-------------------------------------|


|-------------------------------------------------------------------------------|
|-------------------------------------------------------------------------------|
|-------------------------------------------------------------------------------|
|----------5-------------5p4------------------5------------7---7/9--------------|
|-------------7v--------------5-5s7v-------------7v--------5---5/7--------------|
|---0h5h7---------0h5h7----------------0h5h7----------0--0---0------------------|




CHORUS
|-------------------------------------------------------------------------------|
|-------------------------------------------------------------------------------|
|-------------------------------------------------------------------------------|
|-------------------------------------------------------------------------------|
|---9-9-9-9-9-9---8--8--8---7-7-7-7-7-7---5--5--5---/5--7-----------------------|
|---7-7-7-7-7-7---6--6--6---5-5-5-5-5-5---3--3--3----------6--5v--5--3v----/12\-|
  PM[ . . . . .   .  .  .   . . . . . .   .  .  .]



Pre Verse 2
|-------------------------------------------------------------------------------|
|-------------------------------------------------------------------------------|
|-------------------------------------------------------------------------------|
|----------5-------------5p4-----------------5-------7b(8)r(7)-7b(8)r(7)--5v----|
|-------------7v--------------5-5s7v-------------7v-----------------------------|
|---0h5h7---------0h5h7---------------0h5h7-------------------------------------|




VERSE 2 (2x)

 Both Guitars
|-------------------------------------------------------------------------------|
|-------------------------------------------------------------------------------|
|-------------------------------------------------------------------------------|
|----------5-------------5p4-----------------5-------7b(8)r(7)-7b(8)r(7)--5v----|
|-------------7v--------------5-5s7v-------------7v-----------------------------|
|---0h5h7---------0h5h7---------------0h5h7-------------------------------------|


|-------------------------------------------------------------------------------|
|-------------------------------------------------------------------------------|
|-------------------------------------------------------------------------------|
|----------5-------------5p4------------------5------------7---7/9--------------|
|-------------7v--------------5-5s7v-------------7v--------5---5/7--------------|
|---0h5h7---------0h5h7----------------0h5h7----------0--0---0------------------|




CHORUS
|-------------------------------------------------------------------------------|
|-------------------------------------------------------------------------------|
|-------------------------------------------------------------------------------|
|-------------------------------------------------------------------------------|
|---9-9-9-9-9-9---8--8--8---7-7-7-7-7-7---5--5--5---/5--7-----------------------|
|---7-7-7-7-7-7---6--6--6---5-5-5-5-5-5---3--3--3----------6--5v--5--3v----/12\-|
  PM[..........   .  .  .   . . . . . .   .  .  .]




Killer Riff 
|---------------------------------------------------------------------------------|
|---------------------------------------------------------------------------------|
|---------------------------------------------------------------------------------|
|--------9---------------------------------------9--------------------------------|
|--------7--------10-10-----7----7----7\---------7--------10-10-----7----7----7\--|
|---0--0----0--0--8--8----0-5--0-5--0-5\----0--0----0--0--8--8----0-5--0-5--0-5\--|
  PM[  .    .  .          .    .    .       .  .    .  .          .    .    .


|---------------------------------------------------------------------------------|
|---------------------------------------------------------------------------------|
|---------------------------------------------------------------------------------|
|---------------------------------------------------------------------------------|
|---10-10-10-10-10-10-10-10-10-10-10-10---9--9--9--9--9--9--9--9--9--9--9--9------|
|---8--8--8--8--8--8--8--8--8--8--8--8----10-10-10-10-10-10-10-10-10-10-10-10-----|
 PM[.  .  .  .  .  .  .  .  .  .  .  .    .  .  .  .  .  .  .  .  .  .  .  .]




 ENDING RIFF
|---------------------------------------------------------------------------------|
|---------------------------------------------------------------------------------|
|---------------------------------------------------------------------------------|
|--------9---------------------------------------9--------------------------------|
|--------7--------10-10-----7----7----7\---------7--------10-10-----7----7----7\--|
|---0--0----0--0--8--8----0-5--0-5--0-5\----0--0----0--0--8--8----0-5--0-5--0-5\--|
 PM[.  .    .  .          .    .    .       .  .    .  .          .    .    .        


|---------------------------------------------------------------------------------|
|---------------------------------------------------------------------------------|
|---------------------------------------------------------------------------------|
|--------9------------------------------------------------------------------------|
|--------7--------10-10-----7----7----7\-----10-10-10-10-10-10-10-10-10-10-10-10--|
|---0--0----0--0--8--8----0-5--0-5--0-5\-----8--8--8--8--8--8--8--8--8--8--8--8---|
    .  .    .  .          .    .    .        .  .  .  .  .  .  .  .  .  .  .  .    


|------------------------------------------|
|------------------------------------------|
|------------------------------------------|
|------------------------------------------|
|---9--9--9--9--9--9--9--9--9--9--9--9-----|
|---10-10-10-10-10-10-10-10-10-10-10-10----|
    .  .  .  .  .  .  .  .  .  .  .  .]


|---------------------------------------------------------------------------------|
|---------------------------------------------------------------------------------|
|---------------------------------------------------------------------------------|
|--------9---------------------------------------9--------------------------------|
|--------7--------10-10-----7----7----7\---------7--------10-10-----7----7----7\--|
|---0--0----0--0--8--8----0-5--0-5--0-5\----0--0----0--0--8--8----0-5--0-5--0-5\--|
 PM[.  .    .  .          .    .    .       .  .    .  .          .    .    .  


|---------------------------------------------------------------------------------|
|---------------------------------------------------------------------------------|
|--------------------------------------------9h11-11-11-11-11-11-11-11-11-11-11---|
|--------9------------------------------------------------------------------------|
|--------7--------10-10-----7----7----7\------------------------------------------|
|---0--0----0--0--8--8----0-5--0-5--0-5\------------------------------------------|
    .  .    .  .          .    .    .]


|-------------------------------------------|
|-------------------------------------------|
|---11p9----9-------------------------------|
|--------11---11-9-11p9----9----------------|
|-----------------------11---11-9-----------|
|-------------------------------------------|



|---------------------------------------------------------------------------------|
|---------------------------------------------------------------------------------|
|---------------------------------------------------------------------------------|
|--------9---------------------------------------9--------------------------------|
|--------7--------10-10-----7----7----7\---------7--------10-10-----7----7----7\--|
|---0--0----0--0--8--8----0-5--0-5--0-5\----0--0----0--0--8--8----0-5--0-5--0-5\--|
 PM[.  .    .  .          .    .    .       .  .    .  .          .    .    .


|---------------------------------------------------------------------------------|
|---------------------------------------------------------------------------------|
|---------------------------------------------------------------------------------|
|--------9------------------------------------------------------------------------|
|--------7--------10-10-----7----7----7\-----10-10-10-10-10-10-10-10-10-10-10-10--|
|---0--0----0--0--8--8----0-5--0-5--0-5\-----8--8--8--8--8--8--8--8--8--8--8--8---|
    .  .    .  .          .    .    .        .  .  .  .  .  .  .  .  .  .  .  . 


|------------------------------------------|
|------------------------------------------|
|------------------------------------------|
|------------------------------------------|
|---9--9--9--9--9--9--9--9--9--9--9--9-----|
|---10-10-10-10-10-10-10-10-10-10-10-10----|
    .  .  .  .  .  .  .  .  .  .  .  .


|---------------------------------------------------------------------------------|
|---------------------------------------------------------------------------------|
|---------------------------------------------------------------------------------|
|--------9---------------------------------------9--------------------------------|
|--------7--------10-10-----7----7----7\---------7--------10-10-----7----7----7\--|
|---0--0----0--0--8--8----0-5--0-5--0-5\----0--0----0--0--8--8----0-5--0-5--0-5\--|
 PM[.  .    .  .          .    .    .       .  .    .  .          .    .    .     


|---------------------------------------------------------------------------------|
|---------------------------------------------------------------------------------|
|--------------------------------------------9h11-11-11-11-11-11-11-11-11-11-11---|
|--------9------------------------------------------------------------------------|
|--------7--------10-10-----7----7----7\------------------------------------------|
|---0--0----0--0--8--8----0-5--0-5--0-5\------------------------------------------|
    .  .    .  .          .    .    .


|---------------------------------------------------------------------------------|
|---------------------------------------------------------------------------------|
|---11p9----9-----------------------9h11-11-11-11-11--9h11-11-11-11-11--11p9------|
|--------11---11-9-11p9----9-------------------------------------------------11---|
|-----------------------11---11-9-------------------------------------------------|
|---------------------------------------------------------------------------------|



|-------------------------------------------------------------------------|
|------------------------------8------------------------------------------|
|--9---------------------------7------------------------------------------|
|----11-9-11p9----9------------6------------------------------------------|
|--------------11---11-9-------7------------------------------------------|
|-------------------------------------------------------------------------|


Добавлено: 30.09.2015
Другие материалы по этой песне:
  • Аккорды и текст

Страница создана 30.09.2015
http://primanota.ru/down/lysergic-funeral-procession-chords.htm
Привет, Гость.
Предлагаем пройти революционный курс по гитаре.
Подарок от PrimaNota.Ru, забирай!