PrimaNota.ru - самый крупный в мире бесплатный архив песенных текстов, аккордов, табулатур и нот


Down - Lifer real one - таба, видео

Регистрация Запомнить меня
Войти через:  Facebook Google Twitter Vk Yandex Mail.ru

Down - Lifer real one - таба, видео

Печатать
Просмотров: 124


Lifer by Down
From the album NOLA
Tabbed by mike ute(tmpnshmnt2000)

Standard tuning down one whole step
I didn't include palm muting you can figure it out
Intro and verse  -I explained the bends at the end-
               
|-------|-----------------------------------------
|-------|-----------------------------------------
|-------|-----------------------------------------
|-------|-----------------------------------------
|-------|-----------------------------------------
|-00-15|-0-00-14^-00-14^0-14^0-14^12-------------


after two times play
|-------------------------------------------------
|-------------------------------------------------
|-------------------------------------------------
|-------------------------------------------------
|---------------------------12h14-12-12-12--7-7-7-7
|0-00-14^-00-14^0-14^0-12h14-----10-10-10--5-5-5-


|-------------------------------------------------
|-------------------------------------------------
|-------------------------------------------------
|-------------------------------------------------
|-7-7-5-------------------------------------------
|-5-5-3-------------------------------------------


chorus
|-------------------------------------------------
|-------------------------------------------------
|-------------------------------------------------
|--------------------------------5----------------
|--2----4-5--8-7----5-------5-5h7-----------------
|--0-00-2-3--6-5-5h7-7---5h7----------------------



|-------------------------------------------------
|-------------------------------------------------
|-------------------------------------------------
|-------------------------------------------------
|--2----4-5--8-7--------8-7-5-4-------------------
|--0-00-2-3--6-5--/12--6-5-3-2-------------------


middle part
|-------------------------------------------------
|-------------------------------------------------
|-------------------------------------------------
|---9----9-99------9------9-99------9----9-99-----
|---7----7-77------7------7-77------7----7-77-----
|-00--000-----3/-00----000-----8-00--000-----3/--





Continued
|-------------------------------------------------
|-------------------------------------------------
|-------------------------------------------------
|12s14-14-14s12-12-12s14-14-14s12-12-14-14--------
|10s12-12-12s10-10-10s12-12-12s10-10-12-10--------
|-------------------------------------------------



|-------------------------------------------------
|-------------------------------------------------
|-------------------------------------------------
|---(5)---(7)---(8)-------------------------------
|-------------------------------------------------
|-0--3--0--5---0-6--------------------------------
the bends are like in the beginning -the 1st is a whole bend just up, 
the next two are slight bends to pull-offs and the last bend is a 
whole bend up then down, I don't know how to show this so I thought 
I would tell you.
|-------------------------------------------------
|-------------------------------------------------
|-------------------------------------------------
|-------------------------------------------------
|-------------------------------------------------
|-0--00-2^-00-2~0-2~0-2^-0------------------------
I didn't include the solo parts but it is pretty easy to get.



Добавлено: 27.09.2013
Другие материалы по этой песне:
  • Аккорды и текст

Страница создана 27.09.2013
http://primanota.ru/down/lifer-real-one-chords.htm
Привет, Гость.
Предлагаем пройти революционный курс по гитаре.
Подарок от PrimaNota.Ru, забирай!