PrimaNota.ru - самый крупный в мире бесплатный архив песенных текстов, аккордов, табулатур и нот


Down - Swan Song - текст песни, таба, видео

Регистрация Запомнить меня
Войти через:  Facebook Google Twitter Vk Yandex Mail.ru

Down - Swan Song - текст песни, таба, видео

Печатать
Просмотров: 207
Авторы: Pepper Keenan, Phil Anselmo, Jimmy Bower

"Swan Song" by Down.

From The Album Nola.

Tabbed by SETCH for the unofficial DOWN homepage:
http://www.hh.se/www2/it95ew/downpage.htm

Tuning All strings down a step and a half.

ie:- DbGbCbFbAbDb. (b=flat)

 
 Riff 1. (Intro)

 d||------------------------------------------------------------||
 A||------------------------------------------------------------||
 F||------------------------------------------------------------|| 
 C||-----6h7p6---6h7p6---6---6h7-9-7--7-7-7-7-7-10--10-10----12-||
 G||-2--------------------------------5-5-5-5-5-8---8--8--sl-10-||
 D||-0-0-------0-------0---0------------------------------------||

 Riff 2. (verse)

 d||--------------------------------------------------------||
 A||--------------------------------------------------------||
 F||--------------------------------------------------------|| 
 C||--------------------------------------------------------||
 G||-7-5-7---------------------7-5-7------------------------||
 D||-5-3-5---------------------5-3-5------------------------||

 d||--------------------------------------------------------||
 A||-------------------10------------------7--7-------------||
 F||-------7b9r7-5-7b9----9r7--------------7--7-------------|| 
 C||--------------------------------------------------------||
 G||-7-5-7---------------------7-5-7------------------------||
 D||-5-3-5---------------------5-3-5------------------------||

 Riff 3. (Chorus)

 d||--------------------------------------------------------||
 A||--------------------------------------------------------||
 F||--------------------------------------------------------|| 
 C||--------------5-7-5-----------------------5-7-5---------|| x2
 G||-7-5-7--3-4-5-------7-6-5-3--7-5-7--3-4-5-------7-6-5-3-||
 D||-5-3-5-----------------------5-3-5----------------------||

 d||---------------||
 A||---------------||
 F||---------------|| goto riff 1.
 C||---------------||
 G||-7-7-7--5-5-5--||
 D||-5-5-5--3-3-3--||

 pm  . . .  . . .

 Riff 4.(Bridge)

 d||-------------------------------------------||
 A||-------------------------------------------||
 F||-------------------------------------------|| 
 C||-------------------------------------------||
 G||-5--2--5h7-5--7-5--------------------3-----||
 D||-3--0---------5-3--3h5-5-3h5-3h5-3h5---5---||

 d||-------------------------------------------||
 A||-------------------------------------------||
 F||-------------------------------------------|| 
 C||-------------------------------------------||
 G||-5--2--5h7-5--7-5------------5-------------||
 D||-3--0---------5-3--3h5-5-7-6---7-6-0-------||

 Second time end with this

 d||-------------------------------------------||
 A||------------------------------15b17///--||
 F||-------------------------------------------|| 
 C||-------------------------------------------||
 G||-5--2--------------------------------------||
 D||-3--0--x--0--0--0----0---------------------||

 pm           .  .  .    .

 Outro

 d||-------------------------------------------------------||
 A||-------------------------------------------------------||
 F||-------------------------------------------------------|| 
 C||-------------------------------------------------------||
 G||-5--2--7--9--8--7--5--------5--2--7--9--------5--------||
 D||-3--0--5sl7--6--5----7-6-0--3--0--5sl7--6--5----7-6-0--||

 Solo.  (played over Riff 1.)

 d||---------------------------------------------------------------||
 A||---------------------------------------------------------------||
 F||---------------------------------------------------------------|| 
 C||17sl19-19-19sl18-18-18sl16-16-16sl14-14-14sl12-12-12sl14-14-14-||
 G||---------------------------------------------------------------||
 D||---------------------------------------------------------------||

 d||---------------------------------------------------------------||
 A||--------------------------------------15b17--let-ring----------||
 F||19sl18-18-18sl16-16-16sl14-13-14-16----------------------------|| 
 C||---------------------------------------------------------------||
 G||---------------------------------------------------------------||
 D||---------------------------------------------------------------||

 d||---------------------------------------------------------------||
 A||-----------------------------------------------12--12----------||
 F||13-14-14-13-14-14-13---13-14-14-13-14-14-13----12--12----------|| 
 C||--------------------------------------------------------14-----||
 G||---------------------------------------------------------------||
 D||---------------------------------------------------------------||

 d||---------------------------------------------------------------||
 A||----------------------------------12---------------------------||
 F||14b16r14-12-----14b16r14-12-------12---------------------------|| 
 C||------------14--------------14--------------------------14-----||
 G||---------------------------------------------------------------||
 D||---------------------------------------------------------------||
Добавлено: 29.07.2012
Другие материалы по этой песне:

Страница создана 30.03.2012
http://primanota.ru/down/swan-song-chords.htm
Привет, Гость.
Предлагаем пройти революционный курс по гитаре.
Подарок от PrimaNota.Ru, забирай!