PrimaNota.ru - самый крупный в мире бесплатный архив песенных текстов, аккордов, табулатур и нот


Don Omar - Los Bandoleros - таба, видео

Регистрация Запомнить меня
Войти через:  Facebook Google Twitter Vk Yandex Mail.ru

Don Omar - Los Bandoleros - таба, видео

Печатать
Просмотров: 2194
----------------------------------------------------------------------------
             Los Bandoleros - Don Omar ft. Tego Calderon (Intro)
----------------------------------------------------------------------------
Tabbed by: Jovanny
Email: imacarfreak14@msn.com

Tuning: Standard

e|-----------2-----1-3-3-3h4p3---------------1-3-3/10-11--------------------|
B|-2h3p2---2-------------------1-------1-3-4-------------8-8----------------|
G|-------0---------------------------0--------------------------------------|
D|--------------------------------------------------------------------------|
A|--------------------------------------------------------------------------|
E|--------------------------------------------------------------------------|

e|------------------------------------------------------"---"---------------|
B|-8-6-6-----6-----8h9p8-6---6--------------------------"---"---------------|
G|-------8-8---------------8----8-*-*-7-*-*-8--8-*-*-7--"*1*"-*-*-8---------|
D|------------------------------------------------------"---"---------------|
A|------------------------------------------------------"---"---------------|
E|------------------------------------------------------"---"---------------|

e|-------------------------"---"---------------------------------"---"-------|
B|-9-*-*-8-*-*-9--9-*-*-8--"---"-*-*-9---------------------------"---"-------|
G|-------------------------"*2*"---------8-*-*-7-*-*-8--8-*-*-7--"*3*"-*-*-8-|
D|-------------------------"---"---------------------------------"---"-------|
A|-------------------------"---"---------------------------------"---"-------|
E|-------------------------"---"---------------------------------"---"-------|

e|-------------------------"---"--------------------------------------------|
B|-9-*-*-8-*-*-9--9-*-*-8--"---"-*-*-9--------------------------------------|
G|-------------------------"*4*"--------------------------------------------|
D|-------------------------"---"--------------------------------------------|
A|-------------------------"---"--------------------------------------------|
E|-------------------------"---"--------------------------------------------|

  Insert *1* (Guitar 2)
e|-"----11-10-8-"-----------------------------------------------------------|
B|-"--8---------"-----------------------------------------------------------|
G|-"------------"-----------------------------------------------------------|
D|-"------------"-----------------------------------------------------------|
A|-"------------"-----------------------------------------------------------|
E|-"------------"-----------------------------------------------------------|

  Insert *2*
e|-"-10-10-10-11-10---"-----------------------------------------------------|
B|-"----------------8-"-----------------------------------------------------|
G|-"------------------"-----------------------------------------------------|
D|-"------------------"-----------------------------------------------------|
A|-"------------------"-----------------------------------------------------|
E|-"------------------"-----------------------------------------------------|

  Insert *3*
e|-"---11-10-8-"------------------------------------------------------------|
B|-"-8---------"------------------------------------------------------------|
G|-"-----------"------------------------------------------------------------|
D|-"-----------"------------------------------------------------------------|
A|-"-----------"------------------------------------------------------------|
E|-"-----------"------------------------------------------------------------|

  Insert *4*
e|-"-8h10p8------------------"----------------------------------------------|
B|-"--------10-8h10p8--------"----------------------------------------------|
G|-"------------------10-8~~-"----------------------------------------------|
D|-"-------------------------"----------------------------------------------|
A|-"-------------------------"----------------------------------------------|
E|-"-------------------------"----------------------------------------------|


| /  slide up
| \  slide down
| h  hammer-on
| p  pull-off
| ~  vibrato
| +  harmonic
| x  Mute note
============================================================================
Добавлено: 24.02.2012
Другие материалы по этой песне:

Страница создана 24.02.2012
http://primanota.ru/don-omar/los-bandoleros-chords.htm
Привет, Гость.
Предлагаем пройти революционный курс по гитаре.
Подарок от PrimaNota.Ru, забирай!