PrimaNota.ru - самый крупный в мире бесплатный архив песенных текстов, аккордов, табулатур и нот


Don Omar - Bandoleros - текст песни, таба, видео

Регистрация Запомнить меня
Войти через:  Facebook Google Twitter Vk Yandex Mail.ru

Don Omar - Bandoleros - текст песни, таба, видео

Печатать
Просмотров: 657
Авторы: Paul F. Irizarry, William Omar Landrón Rivera, Tego Calderón, Armando José Rosario Cruz

 Bandoleros
  BY:Don Omar FT. Tego caleron


                This Song Is awesome

                 (I think I got these right)   (I hope so)
                  (you Might Want to finger pick this its easier for me to)

INTRO
e--------------3-----1---3-3-3h4p3-----------------1-3-6-8-10-10h11-|
b-2h4p3-----4-----------------------------1-3-4---------------------|
g--------5------------------------------0---------------------------|
d-------------------------------------------------------------------|
a-------------------------------------------------------------------|
e-------------------------------------------------------------------|

e-------------------------------------------------------------|
b-8-8-8h9p8----------------8h9h8------------------------------|
g--------------10--8--10--------------10--8--10---------------|
d-------------------------------------------------------------|
a-------------------------------------------------------------|
e-------------------------------------------------------------|

   Verse 2
 e------------------------------4-------3-4----4-------3-4----|
 b--4-----3-5---4-------3-5-------6--------------6------------|
 g----5-----------5-----------------5--------------5----------|
 d------5-----------5-----------------------------------------|  



	
	
Добавлено: 18.06.2012
Другие материалы по этой песне:
  • Аккорды и текст

Страница создана 13.06.2012
http://primanota.ru/don-omar/bandoleros-chords.htm
Привет, Гость.
Предлагаем пройти революционный курс по гитаре.
Подарок от PrimaNota.Ru, забирай!