PrimaNota.ru - самый крупный в мире бесплатный архив песенных текстов, аккордов, табулатур и нот


Disturbed - Criminal - текст песни, таба, бас-таба, видео

Регистрация Запомнить меня
Войти через:  Facebook Google Twitter Vk Yandex Mail.ru

Disturbed - Criminal - текст песни, таба, бас-таба, видео

Печатать
Просмотров: 474
-------------------------------------------------------------------------------
                             CRIMINAL - Disturbed (Album Indestructible)
-------------------------------------------------------------------------------
Tabbed by: Alex Manelis
Email: alex@austerityclothing.com

Tuning: D A D G B E

e|-----------------------------------------------------------------------|
B|-----------------------------------------------------------------------|
G|-----------------------------------------------------------------------|
D|-----------------------------------------------------------------------|
A|------------------------------------------------3-3-3--5h--0-----------|
D|------------------------------------------------3-3-3--5h--0-----------|

e|-----------------------------------------------------------------------|
B|-----------------------------------------------------------------------|
G|-----------------------------------------------------------------------|
D|-----------------10----------------------------------------------------|
A|-----------------8-----------------------3-----------------------------|
D|-----0-0-0-----0-X-----0-0---0--3h---5h------5p---3p----0-0------------|

e|-----------------------------------------------------------------------|
B|-----------------------------------------------------------------------|
G|-----------------------------------------------------------------------|
D|-----------------10-------------------------12-------------------------|
A|-----------------8-----------------------3--10-------------------------|
D|-----0-0-0-----0-X-----0-0---0--3h---5h-----X--------------------------|

e|-----------------------------------------------------------------------|
B|-----------------------------------------------------------------------|
G|-----------------------------------------------------------------------|
D|-----------------10----------------------------------------------------|
A|-----------------8-----------------------3-----------------------------|
D|-----0-0-0-----0-X-----0-0---0--3h---5h------5p---3p---0-0-------------|

Song is to be played at a very quick BPM
This was the best I could do for this song, kinda had trouble
tabbing it. Help on this tab is open!


| /  slide up
| \  slide down
| h  hammer-on
| p  pull-off
| ~  vibrato
| +  harmonic
| x  Mute note
===============================================================================
Добавлено: 21.04.2012
Другие материалы по этой песне:

Страница создана 23.02.2012
http://primanota.ru/disturbed/criminal-chords.htm
Привет, Гость.
Предлагаем пройти революционный курс по гитаре.
Подарок от PrimaNota.Ru, забирай!