PrimaNota.ru - самый крупный в мире бесплатный архив песенных текстов, аккордов, табулатур и нот


Disturbed - Deceiver - текст песни, таба, видео

Регистрация Запомнить меня
Войти через:  Facebook Google Twitter Vk Yandex Mail.ru

Disturbed - Deceiver - текст песни, таба, видео

Печатать
Просмотров: 266
Disturbed - Deceiver

This is Deceiver by Disturbed, the tuning is in Drop Db.

Tuning: (D#5 A#4 F#4 C#4 G#3 C#3)


Intro Riffs
e|------------------------------------|-------------------------------------|
B|------------------------------------|-------------------------------------|
G|------------------------------------|-------------------------------------|
D|------------------------------------|-------------------------------------|
A|--------8-7------7---5-3---------0--|----8-7-3-7--------------------------|
E|--0-0-0-----10-0---0-----0-5-7-3----|--0---------8-5-0-7-0-8-5--10-10-10--|
PM  * * * * * *  * * * * * * * * * *     * * * * * * * * * * * *  *  *  *
//Guitar 1                   TIP: Slowly release a Palm Mute on the whole intro until
||                               the heavy part.
\\Guitar 2 (Backing)
Harmonic +               +                        +
e|------12---------------5------------|-----------7--------------22~--------|
B|------------------------------------|-------------------------------------|
G|------------------------------------|-------------------------------------|
D|------------------------------------|-------------------------------------|
A|------------------------------------|-------------------------------------|
E|------------------------------------|-------------------------------------|


e|------------------------------------|-----------------------------------------|
B|------------------------------------|-----------------------------------------|
G|------------------------------------|-----------------------------------------|
D|------------------------------------|-------------------------------10-10-10--|
A|--------8-7------7---5-3---------0--|----8/7--3--7\5----------------10-10-10--|
E|--0-0-0-----10-0---0-----0-5-7-3----|--0-------------8-5-0-7-0-8-5--10-10-10--|
PM  * * * * * *  * * * * * *
//Guitar 1                  ^^(Starting Releasing the Palm mute right now)
||
\\Guitar 2 (Backing)
AH              +
e|-----------------/--------------|-----\---------------------|
B|----------------/---------------|------\--------------------|
G|--------------5--Full bend------|---------------------------|
D|--------------------------------|---------5-----------------|
A|--------------------------------|---------------------------|
E|--------------------------------|---------------------------|

Intro (Heavier)                                          REPEAT x2!
e|-------------------------------------|---------------------------------------------|[x2]
B|-------------------------------------|---------------------------------------------|
G|-------------------------------------|---------------------------------------------|
D|-------10\9--5---9---7\5----3/7------|--0--10\9--3--9\7--3-----7---5-----10-10-10--|
A|-0-0-0-8-\7--3---7---5\3----3/7---0--|--0--8\7---5--7\5--1-----7---5-----10-10-10--|
E|-0-0-0---------0---0-----0--3/7-0-0--|--0------------------0-0-7-0-5--0--10-10-10--|


e|--------------------------------------------------|
B|--------------------------------------------------|
G|--------------------------------------------------|
D|--------------2--------2-----2--------2--------2--|
A|--------------2--------2-----2--------2--------2--|
E|--2--2--2--2--2--2--2--2--2--2--2--2--2--2--2--2--|
PM  *  *  *  *     *  *     *     *  *     *  *


1st Verse Riff
e|----------------------------------------|--------------------------------------|
B|----------------------------------------|--------------------------------------|Repeat
G|----------------------------------------|--------------------------------------|this whole

twice.
A|--7/10---5---5-5/10--------10------5/7--|--2/5-----7----5-5/7-----8-------3-3--|[x2]
E|--7/10-0---0-5-5/10-0-0-0--10--0-0-5/7--|--2/5--0--7--0-5-5/7-0-0-7-0-0-0-3-3--|
 |PM     *   *        * * *      * *              *     *       * *   * * *
e|----------------------------------------|--------------------------------------|
B|----------------------------------------|--------------------------------------|
G|----------------------------------------|--------------------------------------|
D|---------7------------------------------|-------------------7-7-7-7--7\5--5/7--|
A|--7/10---5---5-5/10--------10------5/7--|--5-5-5-5-5-5-5-5--7-7-7-7--7\5--5/7--|
E|--7/10-0---0-5-5/10-0-0-0--10--0-0-5/7--|--5-5-5-5-5-5-5-5--7-7-7-7--7\5--5/7--|
PM       *   *        * * *      * *         * * * *

Chorus Riff
e|---------------------------------|--------------------------------|
B|---------------------------------|--------------------------------|
G|---------------------------------|--------------------------------|
D|--9-2-2--2-2------------2--------|--7-2-2--2-2-----------2-----3--|
A|--7-2-2--2-2--3-5-3-2-0---5-2-3--|--5-2-2--2-2-3-5-3-2-0---5-3----|
E|----2-2--2-2---------------------|----2-2--2-2--------------------|
 |
e|---------------------------------|------------------------------------| Repeat this whole
B|---------------------------------|------------------------------------| section 2 times.
G|---------------------------------|------------------7-7-7-7-7-7-7-12--|
D|--9-2-2--2-2------------2--------|--3-----3---3-3-3-7-7-7-7-7-7-7-12--|
A|--7-2-2--2-2--3-5-3-2-0---5-2-3--|--3-----3---3-3-3-5-5-5-5-5-5-5-10--|
E|----2-2--2-2---------------------|--3-0-0-3-0-3-3-3-------------------|


Intro Riff (BRIDGE)
e|------------------------------------|-----------------------------------------|
B|------------------------------------|-----------------------------------------|
G|------------------------------------|-----------------------------------------|
D|------------------------------------|-------------------------------10-10-10--|
A|--------8-7------7---5-3---------0--|----8/7--3--7\5----------------10-10-10--|
E|--0-0-0-----10-0---0-----0-5-7-3----|--0-------------8-5-0-7-0-8-5--10-10-10--|
PM  * * * * * *  * * * * * *

Heavy Intro (BRIDGE)
e|-------------------------------------|---------------------------------------------|
B|-------------------------------------|---------------------------------------------|
G|-------------------------------------|---------------------------------------------|
D|-------10\9--5---9---7\5----3/7------|--0--10\9--3--9\7--3-----7---5-----10-10-10--|
A|-0-0-0-8-\7--3---7---5\3----3/7---0--|--0--8\7---5--7\5--1-----7---5-----10-10-10--|
E|-0-0-0---------0---0-----0--3/7-0-0--|--0------------------0-0-7-0-5--0--10-10-10--|


e|--------------------------------------------------|
B|--------------------------------------------------|
G|--------------------------------------------------|
D|--------------2--------2-----2--------2--------2--|
A|--------------2--------2-----2--------2--------2--|
E|--2--2--2--2--2--2--2--2--2--2--2--2--2--2--2--2--|
PM  *  *  *  *     *  *     *     *  *     *  *


1st Verse Riff
e|----------------------------------------|--------------------------------------|
B|----------------------------------------|--------------------------------------|Repeat
G|----------------------------------------|--------------------------------------|this whole

twice.
A|--7/10---5---5-5/10--------10------5/7--|--2/5-----7----5-5/7-----8-------3-3--|[x2]
E|--7/10-0---0-5-5/10-0-0-0--10--0-0-5/7--|--2/5--0--7--0-5-5/7-0-0-7-0-0-0-3-3--|
 |PM     *   *        * * *      * *              *     *       * *   * * *
e|----------------------------------------|--------------------------------------|
B|----------------------------------------|--------------------------------------|
G|----------------------------------------|--------------------------------------|
D|---------7------------------------------|-------------------7-7-7-7--7\5--5/7--|
A|--7/10---5---5-5/10--------10------5/7--|--5-5-5-5-5-5-5-5--7-7-7-7--7\5--5/7--|
E|--7/10-0---0-5-5/10-0-0-0--10--0-0-5/7--|--5-5-5-5-5-5-5-5--7-7-7-7--7\5--5/7--|
PM       *   *        * * *      * *         * * * *

Chorus Riff
e|---------------------------------|--------------------------------|
B|---------------------------------|--------------------------------|
G|---------------------------------|--------------------------------|
D|--9-2-2--2-2------------2--------|--7-2-2--2-2-----------2-----3--|
A|--7-2-2--2-2--3-5-3-2-0---5-2-3--|--5-2-2--2-2-3-5-3-2-0---5-3----|
E|----2-2--2-2---------------------|----2-2--2-2--------------------|
 |
e|---------------------------------|------------------------------------| Repeat this whole
B|---------------------------------|------------------------------------| section 2 times.
G|---------------------------------|------------------7-7-7-7-7-7-7-12--|
D|--9-2-2--2-2------------2--------|--3-----3---3-3-3-7-7-7-7-7-7-7-12--|
A|--7-2-2--2-2--3-5-3-2-0---5-2-3--|--3-----3---3-3-3-5-5-5-5-5-5-5-10--|
E|----2-2--2-2---------------------|--3-0-0-3-0-3-3-3-------------------|


Bridge
e|-----------------------------------------------|
B|-----------------------------------------------|
G|-----------------------------------------------|
D|--2--2--2--2--------2--2--2--2--------2--2--2--|
A|--2--2--2--2--x--x--2--2--2--2--x--x--2--2--2--|
E|--2--2--2--2--x--x--2--2--2--2--x--x--2--2--2--|


Bridge B
e|-----------------------------------|------------------------------------|
B|-----------------------------------|------------------------------------|
G|-----------------------------------|------------------------------------|
D|--------------------7-9-7---9-7----|--------------9-7-12-9-7------------|
A|----------9-7-5-7-9-------7-----9--|----------9-7------------7-9-7-5-7--|
E|--0-8-7-5--------------------------|--0-8-7-5---------------------------|
PM  * * * * * * * * * * * * * * * *     * * * * * * * * *  * * * * * * * *
 |
e|-----------------------------------|
B|-----------------------------------|
G|-----------------------------------|
D|--------------------7-9-7---9-7----|
A|----------9-7-5-7-9-------7-----9--|
E|--0-8-7-5--------------------------|
PM  * * * * * * * * * * * * * * * *


Bridge C
e|-----------------------------------|
B|-----------------------------------|
G|-----------------------------------|
D|--6-6-6-6-6-6-6-6-6-9-9-9-9-9-9-9--|
A|--4-4-4-4-4-4-4-4-4-7-7-7-7-7-7-7--|
E|-----------------------------------|

Bridge D
e|-----------------------------------|------------------------------------|
B|-----------------------------------|------------------------------------|
G|-----------------------------------|------------------------------------|
D|--------------------7-9-7---9-7----|--------------9-7-12-9-7------------|
A|----------9-7-5-7-9-------7-----9--|----------9-7------------7-9-7-5-7--|
E|--0-8-7-5--------------------------|--0-8-7-5---------------------------|
 |
e|-----------------------------------|
B|-----------------------------------|
G|-----------------------------------|
D|--------------------7-9-7---9-7----|
A|----------9-7-5-7-9-------7-----9--|
E|--0-8-7-5--------------------------|

Bridge E
e|-----------------------------------|
B|-----------------------------------|
G|-----------------------------------|
D|--6-6-6-6-6-6-6-6-6-9-9-9-9-9-9-9--|
A|--4-4-4-4-4-4-4-4-4-7-7-7-7-7-7-7--|
E|-----------------------------------|

Bridge Outro
e|-----------------------------------|---------------------------------|
B|-----------------------------------|---------------------------------|
G|-----------------------------------|---------------------------------|
D|--6-5---------6-5-----6-5-----6-5--|--6-5---------6-5---7-7-7-7/9-9--|
A|--6-5-x-x-x-x-6-5-x-x-6-5-x-x-6-5--|--6-5-x-x-x-x-6-5-x-7-7-7-7/9-9--|
E|--6-5-x-x-x-x-6-5-x-x-6-5-x-x-6-5--|--6-5-x-x-x-x-6-5-x-7-7-7-7/9-9--|

Chorus Riff A
e|----------------------------------|--------------------------------|
B|----------------------------------|--------------------------------|
G|----------------------------------|--------------------------------|
D|--2--2-2--2-2------------2--------|--7-2-2--2-2-----------2-----3--|
A|--2--2-2--2-2--3-5-3-2-0---5-2-3--|--5-2-2--2-2-3-5-3-2-0---5-3----|
E|--2--2-2--2-2---------------------|----2-2--2-2--------------------|
 |
e|---------------------------------|------------------------------------|
B|---------------------------------|------------------------------------|
G|---------------------------------|------------------7-7-7-7-7-7-7-12--|
D|--9-2-2--2-2------------2--------|--3-----3---3-3-3-7-7-7-7-7-7-7-12--|
A|--7-2-2--2-2--3-5-3-2-0---5-2-3--|--3-----3---3-3-3-5-5-5-5-5-5-5-10--|
E|----2-2--2-2---------------------|--3-0-0-3-0-3-3-3-------------------|

Chorus Riff B
e|---------------------------------|--------------------------------|
B|---------------------------------|--------------------------------|
G|---------------------------------|--------------------------------|
D|--9-2-2--2-2------------2--------|--7-2-2--2-2-----------2-----3--|
A|--7-2-2--2-2--3-5-3-2-0---5-2-3--|--5-2-2--2-2-3-5-3-2-0---5-3----|
E|----2-2--2-2---------------------|----2-2--2-2--------------------|
 |
e|---------------------------------|------------------------------------|
B|---------------------------------|------------------------------------|
G|---------------------------------|------------------7-7-7-7-7-7-7-12--|
D|--9-2-2--2-2------------2--------|--3-----3---3-3-3-7-7-7-7-7-7-7-12--|
A|--7-2-2--2-2--3-5-3-2-0---5-2-3--|--3-----3---3-3-3-5-5-5-5-5-5-5-10--|
E|----2-2--2-2---------------------|--3-0-0-3-0-3-3-3-------------------|

Chorus Finale
e|---------------------------------|---------------------------------|
B|---------------------------------|---------------------------------|
G|---------------------------------|---------------------------------|
D|--9---------------------2--------|--7---------------------2-----3--|
A|--7-----------3-5-3-2-0---5-2-3--|--5-----------3-5-3-2-0---5-3----|   Repeat this whole
E|----2-2-2-2-2--------------------|----2-2-2-2-2--------------------|   section twice
 |PM  * * * * *                         * * * * *
e|---------------------------------|-------------------------------------|  [x2]
B|---------------------------------|-------------------------------------|
G|---------------------------------|-------------------7-7-7-7-7-7-7-12--|
D|--9---------------------2--------|--3-----3---3-3-3--7-7-7-7-7-7-7-12--|
A|--7-----------3-5-3-2-0---5-2-3--|--3-----3---3-3-3--5-5-5-5-5-5-5-10--|
E|----2-2-2-2-2--------------------|--3-0-0-3-0-3-3-3--------------------|
PM    * * * * *                         * *   *

e|--19--|
B|--12--|
G|--9---|
D|--9---|
A|------|
E|------|

Symbols used:
PM - Palm Mute
+ - Harmonic
AH - Artifical Harmonic
/ - Slide up
\ - Slide down
Добавлено: 11.04.2012
Другие материалы по этой песне:

Страница создана 11.04.2012
http://primanota.ru/disturbed/deceiver-chords.htm
Привет, Гость.
Предлагаем пройти революционный курс по гитаре.
Подарок от PrimaNota.Ru, забирай!