PrimaNota.ru - самый крупный в мире бесплатный архив песенных текстов, аккордов, табулатур и нот


Disturbed - Inside The Flames - таба, видео

Регистрация Запомнить меня
Войти через:  Facebook Google Twitter Vk Yandex Mail.ru

Disturbed - Inside The Flames - таба, видео

Печатать
Просмотров: 196
Уроки эстрадного вокала в Санкт-Петербурге
Artist: Disturbed
Song: Inside The Flames (actually Inside The Fire)
Album: Indestructible
Tuning: Drop C

Intro
D|-------------------------|
A|-------------------------|
F|-------------------------|
C|--7\----7777-----77------|
G|--7\----7777-----77------|
C|--7\----7777-----77------|

Intro 2
D|---------------------------------------------------------------|
A|------------------------------x2-------------------------------|
F|---------------------------------------------------------------|
C|---------------------------------------------------------------|
G|3-0-0-0-0-8-0-0-7-0-0-0-0-3-0-0-3-0-0-0-0-8-0-0-7-0-0-3-0-1-0-1|
C|---------------------------------------------------------------|

Verse
D|----------------------------------------------------------------|
A|-------------------------------x2-------------------------------|
F|----------------------------------------------------------------|
C|----------------------------------------------------------------|
G|-3-0-0-0-0-8-0-0-7-0-0-0-0-3-0-0-3-0-0-0-0-8-0-0-7-0-0-3-0-1-0-1|
C|----------------------------------------------------------------|
PM   . . . .   . .   . . . .   . .   . . . .   . .   . .   .   . 

D|---------------------------------------------------------------|
A|------------------------------x2-------------------------------|
F|---------------------------------------------------------------|
C|---------------------------------------------------------------|
G|3-0-0-0-0-8-0-0-7-0-0-0-0-3-0-0-3-0-0-0-0-8-0-0-7-0-0-3-0-1-0-1|
C|---------------------------------------------------------------|

Pre-chorus
D|-------------------------------------------------------------------|
A|-------------------------------------------------------------------|
F|-------------------------------------------------------------------|
C|-----------------------------------------------------------x-x-x-x-|
G|-----------------------------------------------------------x-x-x-x-|
C|-333-000-555-222-333-000-555-222-333-000-555-222-333-000-5-x-x-x-x-|

Chorus
D|---------------------------------x2--------------------------------------|
A|-------------------------------------------------------------------------|
F|------12-------10------12------------------12-------10-999999999---------|
C|-7-7--12-10-12-10-7-7--12-10-12-10h12-7-7--12-10-12-10-999999999-5555555-|
G|-7-7--10-10-12-8--7-7--10-10-12-10h12-7-7--10-10-12-8--777777777-5555555-|
C|-7-7-----10-12----7-7-----10-12-10h12-7-7-----10-12--------------5555555-|

After the chorus
D|---------------------------------------------------------------|
A|---------------------------------------------------------------|
F|---------------------------------------------------------------|
C|---------------------------------------------------------------|
G|3-0-0-0-0-8-0-0-7-0-0-0-0-3-0-0-3-0-0-0-0-8-0-0-7-0-0-3-0-1-0-1|
C|---------------------------------------------------------------|

Verse
D|----------------------------------------------------------------|
A|-------------------------------x2-------------------------------|
F|----------------------------------------------------------------|
C|----------------------------------------------------------------|
G|-3-0-0-0-0-8-0-0-7-0-0-0-0-3-0-0-3-0-0-0-0-8-0-0-7-0-0-3-0-1-0-1|
C|----------------------------------------------------------------|
PM   . . . .   . .   . . . .   . .   . . . .   . .   . .   .   . 

D|---------------------------------------------------------------|
A|--------------------------------x2-----------------------------|
F|---------------------------------------------------------------|
C|---------------------------------------------------------------|
G|3-0-0-0-0-8-0-0-7-0-0-0-0-3-0-0-3-0-0-0-0-8-0-0-7-0-0-3-0-1-0-1|
C|---------------------------------------------------------------|

Pre-chorus
D|-------------------------------------------------------------------|
A|-------------------------------------------------------------------|
F|-------------------------------------------------------------------|
C|-----------------------------------------------------------x-x-x-x-|
G|-----------------------------------------------------------x-x-x-x-|
C|-333-000-555-222-333-000-555-222-333-000-555-222-333-000-5-x-x-x-x-|

Chorus
D|---------------------------------x2--------------------------------------|
A|-------------------------------------------------------------------------|
F|------12-------10------12------------------12-------10-999999999---------|
C|-7-7--12-10-12-10-7-7--12-10-12-10h12-7-7--12-10-12-10-999999999-5555555-|
G|-7-7--10-10-12-8--7-7--10-10-12-10h12-7-7--10-10-12-8--777777777-5555555-|
C|-7-7-----10-12----7-7-----10-12-10h12-7-7-----10-12--------------5555555-|

Bridge to solo
D|-----------------------------------------|
A|-----------------------------------------|
F|2222---------99-88-4444----------3-------|
C|2222---------99-88-4444----------3-333---|
G|0000---------77-66-2222----------1-333---|
C|-----------------------------------333---|

Solo
D|------------------------------------------------------------------|
A|------------------------------------------------------------------|
F|-8\7b8-7p5-5h7-4-4h5-3-3*----------555-444------555-444-555-7777*-|
C|----------7----------------555-777--------55-77-------------------|
G|------------------------------------------------------------------|
C|------------------------------------------------------------------|

D|-8-00000-7-00000-3-00000-5-00000-8-000-7-000-----|
A|-------------------------------------------------|
F|-------------------------------------------------|
C|-------------------------------------------------|
G|-------------------------------------------------|

D|-3-00000-5-00000-3-000-8-000-7-000-10-000-10-000-|
A|-------------------------------------------------|
F|-------------------------------------------------|
C|-------------------------------------------------|
G|-------------------------------------------------|
C|-------------------------------------------------|

D|-10-8-0000-10-8-00--12p8h10p8---12p8h10p8----12p8h10p8----12p8h10------15-----15-----15-----15/20|
A|-----------------------------10----------10------------10---------15b17--15b17--15b17--15b17-----|
F|-------------------------------------------------------------------------------------------------|
C|-------------------------------------------------------------------------------------------------|
G|-------------------------------------------------------------------------------------------------|
C|-------------------------------------------------------------------------------------------------|

D|-----------------------------------------------------------------------------------|
A|-----------------------------------------------------------------------------------|
F|----------------------------------------------------------------------11--11-14-11-|
C|-------------10-------------------10-------------------10--10-13-10-13--13---------|
G|13-12-0-10-12--12-10-12-13-0-10-12--12-10-13-12-0-10-12--12------------------------|
C|-----------------------------------------------------------------------------------|

D|-----------------------------------------------------------------------------------|
A|-----------------------------------------------------------------------------------|
F|----------------------------------------------------------------------11--11-------|
C|-------------10-------------------10-------------------10--10-13-10-13--13--13-10--|
G|13-12-0-10-12--12-10-12-13-0-10-12--12-10-13-12-0-10-12--12------------------------|
C|-----------------------------------------------------------------------------------|

D|-----------------------------------------------------------------------------------|
A|-----------------------------------------------------------------------------------|
F|----------------------------------------------------------------------11--11-14-11-|
C|-------------10-------------------10-------------------10--10-13-10-13--13---------|
G|13-12-0-10-12--12-10-12-13-0-10-12--12-10-13-12-0-10-12--12------------------------|
C|-----------------------------------------------------------------------------------|

D|--------------------------------------------------------------|
A|--------------------------------------------------------------|
F|--------------------------------------------------------------|
C|-------------10-------------------10-------------------10--10-|
G|13-12-0-10-12--12-10-12-13-0-10-12--12-10-13-12-0-10-12--12---|
C|--------------------------------------------------------------|

D|---------------------------------------14--14-17-14-17/20-20-20---|
A|------------------------13--13-16-13-16--16-----------------------|
F|---------11--11-14-11-14--14--------------------------------------|
C|-13-10-13--13-----------------------------------------------------|
G|------------------------------------------------------------------|
C|------------------------------------------------------------------|

Chorus
D|---------------------------------x2--------------------------------------|
A|-------------------------------------------------------------------------|
F|------12-------10------12------------------12-------10-999999999---------|
C|-7-7--12-10-12-10-7-7--12-10-12-10h12-7-7--12-10-12-10-999999999-5555555-|
G|-7-7--10-10-12-8--7-7--10-10-12-10h12-7-7--10-10-12-8--777777777-5555555-|
C|-7-7-----10-12----7-7-----10-12-10h12-7-7-----10-12--------------5555555-|

Outro
D|---------------------------------------------------------------|
A|------------------------------x2-------------------------------|
F|---------------------------------------------------------------|
C|---------------------------------------------------------------|
G|3-0-0-0-0-8-0-0-7-0-0-0-0-3-0-0-3-0-0-0-0-8-0-0-7-0-0-3-0-1-0-1|
C|---------------------------------------------------------------|

End
D|--|
A|--|
F|2-|
C|2-|
G|0-|
C|--|

* NONE OF THIS IS MY WORK. The other tab was simply hard to read and I just 
decided to submit this as people had requested it.
Добавлено: 22.08.2013
Другие материалы по этой песне:
  • Аккорды и текст

Страница создана 22.08.2013
http://primanota.ru/disturbed/inside-the-flames-chords.htm
Привет, Гость.
Предлагаем пройти революционный курс по гитаре.
Подарок от PrimaNota.Ru, забирай!