PrimaNota.ru - самый крупный в мире бесплатный архив песенных текстов, аккордов, табулатур и нот


Dissection - Mistress Of The Bleeding Sorrow - текст песни, бас-таба, видео

Регистрация Запомнить меня
Войти через:  Facebook Google Twitter Vk Yandex Mail.ru

Dissection - Mistress Of The Bleeding Sorrow - текст песни, бас-таба, видео

Печатать
Просмотров: 107
Tabbed by: 6METAL6BASSIST6
E-mail: petergriffinav@gmail.com

Tuning: EADG

0:02

G|------------------------------------------------------------------------------------------------|
D|2-----------------------2-----------------------2-----------------------------------------------| x4
A|------------3-----------------------2-----------------------3-----------2-----------------------|
E|------------------------------------------------------------------------------------------------|

G|------------------------------------------------------------------------------------------------|.
D|2-----------1-----------2-----------4-----------5-----------4-----------------------------------|.
A|------------------------------------------------------------------------1-----------------------|.
E|------------------------------------------------------------------------------------------------|.
                                                                                                   . x2
G|------------------------------------------------------------------------------------------------|.
D|2-----------1-----------2-----------5-----------4-----------5-----------------------------------|.
A|------------------------------------------------------------------------3-----------------------|.
E|------------------------------------------------------------------------------------------------|.

G|------------------------------------------------------------------------------------------------|
D|2-----------------------2-----------------------2-----------------------------------------------| x2
A|------------3-----------------------2-----------------------3-----------2-----------------------|
E|------------------------------------------------------------------------------------------------|

G|------------------------------------------------|
D|------------------------------------------------|
A|------------------------------------------------|
E|0-----------------------------------------------|

0:46

G|------------------------------------------------5---4-----------|.
D|2-------4---5---1-------2---4---2-------4---5-----------5---4---|.
A|----------------------------------------------------------------|.
E|----------------------------------------------------------------|.
                                                                   . x2
G|----------------------------------------------------------------|.
D|2-------4---5---1-------2---4---2-------4---5-------------------|.
A|------------------------------------------------2-------2-------|.
E|----------------------------------------------------------------|.

1:02

G|----------------------------------------------------------------|
D|------------------------------------------------1---------------| x4
A|----------------------------------------------------------------|
E|0---------------1---------------0-------------------------------|

1:22

G|----------------------------------------------------------------|
D|----------------2-/-3-\-2---------------------------------------|
A|--------------------------------3---------------1---------------|
E|0-----------0-------------------------------3-------------------|

G|----------------------------------------------------------------|
D|----------------2-/-3-\-2-------------------1-------------------|
A|--------------------------------3---------------2---------------|
E|0---------------------------------------------------------------|

G|----------------------------------------------------------------|.
D|----------------2-/-3-\-2---------------------------------------|.
A|--------------------------------3---------------1---------------|.
E|0-------------------------------------------3-------------------|.
                                                                   . x3
G|----------------------------------------------------------------|.
D|----------------2-/-3-\-2-------------------1-------------------|.
A|--------------------------------3---------------2---------------|.
E|0---------------------------------------------------------------|.

1:56

G|----------------------------------------------------------------|
D|------------------------------------------------1---------------| x4
A|----------------------------------------------------------------|
E|0---------------1---------------0-------------------------------|

2:15

G|----------------------------------------------------------------|.
D|----------------2-/-3-\-2---------------------------------------|.
A|--------------------------------3---------------1---------------|.
E|0-------------------------------------------3-------------------|.
                                                                   . x2
G|----------------------------------------------------------------|.
D|----------------2-/-3-\-2-------------------1-------------------|.
A|--------------------------------3---------------2---------------|.
E|0---------------------------------------------------------------|.

2:33

G|----------------------------------------------------------------|
D|------------------------------------------------1---------------| x2
A|----------------------------------------------------------------|
E|0---------------1---------------0-------------------------------|

2:44

G|----------------------------------------------------------------|.
D|--------------------2-------------------------------------------|.
A|------------------------3---2-------------------1-------0-------|.
E|0-------------------------------3-------------------------------|.
                                                                   . x2
G|----------------------------------------------------------------|.
D|--------------------2-------------------------------------------|.
A|------------------------3---2-------------------1b------0-------|.
E|0-------------------------------3-------------------------------|.

3:02

G|------------------------------------------------------------------------------------------------|.
D|2-----------1-----------2-----------4-----------5-----------4-----------------------------------|.
A|------------------------------------------------------------------------1-----------------------|.
E|------------------------------------------------------------------------------------------------|.
                                                                                                   . x2
G|------------------------------------------------------------------------------------------------|.
D|2-----------1-----------2-----------5-----------4-----------5-----------------------------------|.
A|------------------------------------------------------------------------3-----------------------|.
E|------------------------------------------------------------------------------------------------|.

3:18

G|----------------------------------------------------------------|
D|------------------------------------------------1---------------| x2
A|----------------------------------------------------------------|
E|0---------------1---------------0-------------------------------|

G|----------------------------------------------------------------|
D|----------------------------------------------------------------|
A|----------------------------------------------------------------|
E|0---------------------------------------------------------------|

G|----------------------------------------------------------------|
D|--------------------------------------------1-------------------|
A|--------------------------------3-3-3-3-3-------2-2-2-2-2-2-2---|
E|0---------------------------------------------------------------|

3:35

G|----------------------------------------------------------------|
D|----------------2-/-3-\-2---------------------------------------|
A|--------------------------------3-3-3-3-3-------1-1-1-1-1-1-1---|
E|0-0-0-0-0-0-0-------------------------------3-------------------|

G|----------------------------------------------------------------|
D|----------------2-/-3-\-2-------------------1-------------------|
A|--------------------------------3-3-3-3-3-------2-2-2-2-2-2-2---|
E|0-0-0-0-0-0-0---------------------------------------------------|

3:43

G|------------------------------------------------5---4-----------|.
D|2-------4---5---1-------2---4---2-------4---5-----------5---4---|.
A|----------------------------------------------------------------|.
E|----------------------------------------------------------------|.
                                                                   . x2
G|----------------------------------------------------------------|.
D|2-------4---5---1-------2---4---2-------4---5-------------------|.
A|------------------------------------------------2-------2-------|.
E|----------------------------------------------------------------|.

3:59

G|----------------------------------------------------------------|.
D|----------------2-/-3-\-2---------------------------------------|.
A|--------------------------------3---------------1---------------|.
E|0-------------------------------------------3-------------------|.
                                                                   . x2
G|----------------------------------------------------------------|.
D|----------------2-/-3-\-2-------------------1-------------------|.
A|--------------------------------3---------------2---------------|.
E|0---------------------------------------------------------------|.

G|----------------------------------------------------------------|
D|------------------------------------------------1---------------| x3
A|----------------------------------------------------------------|
E|0---------------1---------------0-------------------------------|

G|----------------------------------------------------------------|
D|------------------------------------------------1-------1-------|
A|----------------------------------------------------------------|
E|0---------------1---------------0-------------------------------|
Добавлено: 23.11.2015
Другие материалы по этой песне:

Страница создана 08.04.2012
http://primanota.ru/dissection/mistress-of-the-bleeding-sorrow-chords.htm
Привет, Гость.
Предлагаем пройти революционный курс по гитаре.
Подарок от PrimaNota.Ru, забирай!