PrimaNota.ru - самый крупный в мире бесплатный архив песенных текстов, аккордов, табулатур и нот


Disciple - Wait - текст песни, таба, видео

Регистрация Запомнить меня
Войти через:  Facebook Google Twitter Vk Yandex Mail.ru

Disciple - Wait - текст песни, таба, видео

Печатать
Просмотров: 134
Уроки эстрадного вокала в Санкт-Петербурге
Intro
D |----------------|----------------|----------------|-----------------|
A |---------3------|---------4------|---------1------|-----------------|
F |----2--2--------|----2--2--------|----2--2--------|----2--2--3------|
C |--0-------------|--0-------------|--0-------------|--0--------------|
G |----------------|----------------|----------------|-----------------|
C |----------------|----------------|----------------|-----------------|

With wah on...
                                  3x
D ||--------------------------------||---------------------------------|
A ||*------------------------------*||---------------------------------|
F ||--------------------------------||---------------------------------|
C ||--------------------------------||---------------------------------|
G ||*--------5-3---5---3-----------*||---------5-3---5-----------------|
C ||---0----0-0----------0-0-3------||---0----0-0----------------------|

                                  4x
D ||--------------------------------||
A ||*------------------------------*||
F ||--------------------------------||
C ||-------------------------4------||
G ||*--------5-3---5---3-----------*||
C ||---0----0-0----------0-0--------||

Verse
    Wah on                                                 Wah off   3x
D ||---x-x-xxxx---x-x-xxxx---x-x--xx-|--x-x-xxxx---x-x-xx--------------||
A ||*--x-x-xxxx---x-x-xxxx---x-x--xx-|--x-x-xxxx---x-x-xx-------------*||
F ||---7-7-xxxx---7-7-xxxx---7-7--xx-|--5-5-xxxx---5-5-xx--------------||
C ||---7-7-xxxx---7-7-xxxx---7-7--xx-|--7-7-xxxx---7-7-xx--1---4---1---||
G ||*--5-5-xxxx---5-5-xxxx---5-5--xx-|--5-5-xxxx---5-5-xx--1---4---1--*||
C ||---x-x-xxxx---x-x-xxxx---x-x--xx-|--x-x-xxxx---x-x-xx--1---4---1---||

    Wah on                     Wah off
D ||---x-x--xxxx---x-x--xxxx---12\---|----------------------------------|
A ||*--x-x--xxxx---x-x--xxxx---12\---|----------------------------------|
F ||---7-7--xxxx---7-7--xxxx---12\---|----------------------------------|
C ||---7-7--xxxx---7-7--xxxx---12\---|----------------------------------|
G ||*--5-5--xxxx---5-5--xxxx---12\---|--0-0---0-0---0-0---0-0---0-0---0-|
C ||---x-x--xxxx---x-x--xxxx---12\---|--0-0---0-0---0-0---0-0---0-0---0-|

D |----------------------------------|----------------------------------|
A |----------------------------------|----------------------------------|
F |----------------------------------|----------------------------------|
C |----------------------------------|----------------------------------|
G |-0---0-0---0-0---0-0-3-0-3-0-3-5--|--0-0---0-0---0-0---0-3-0-3-0-3-5-|
C |-0---0-0---0-0---0-0-3-0-3-0-3-5--|--0-0---0-0---0-0---0-3-0-3-0-3-5-|

D |----------------------------------|----------------------------------|
A |----------------------------------|----------------------------------|
F |----------------------------------|----------------------------------|
C |----------------------------------|----------------------------------|
G |--0-0---0-0---0-0---0-3-0-3-0-3-5-|--0-0---0-0---0-0---0-3-0-3-0-3-5-|
C |--0-0---0-0---0-0---0-3-0-3-0-3-5-|--0-0---0-0---0-0---0-3-0-3-0-3-5-|

Pre-chorus
D |----------------------------------|----------------------------------|
A |----------------------------------|----------------------------------|
F |----------------------------------|--3-----------5-------------------|
C |--0-------2-3-2-0---2--0----------|--3-------------------------------|
G |--0-------2-3-2-0---2--0----------|--1-------------------------------|
C |--0-------2-3-2-0---2--0----------|----------------------------------|

D |----------------------------------|----------------------------------|
A |----------------------------------|----------------------------------|
F |----------------------------------|--3-----------5-------------------|
C |--0-------2-3-2-0---2--0----------|--3-------------------------------|
G |--0-------2-3-2-0---2--0----------|--1-------------------------------|
C |--0-------2-3-2-0---2--0----------|----------------------------------|

D |----------------------------------|----------------------------------|
A |----------------------------------|----------------------------------|
F |----------------------------------|--3-----------5-------------------|
C |--0-------2-3-2-0---2--0----------|--3-------------------------------|
G |--0-------2-3-2-0---2--0----------|--1-------------------------------|
C |--0-------2-3-2-0---2--0----------|----------------------------------|

D |----------------------------------|----------------------------------|
A |----------------------------------|----------------------------------|
F |----------------------------------|--3-----------5-------------------|
C |--0-------2-3-2-0---2--0----------|--3-----------5-------------------|
G |--0-------2-3-2-0---2--0----------|--1-----------3-------------------|
C |--0-------2-3-2-0---2--0----------|----------------------------------|

Chorus
D |----------------------------------|----------------------------------|
A |----------------------------------|----------------------------------|
F |----------7-5-7-------------------|----------7-5-7---3-------5-------|
C |--0-------7-5-7-------------------|----------7-5-7---3-------5-------|
G |--0-------5-3-5---0-0---0-0---0-0-|--0-0-----5-3-5---1-------3-------|
C |--0---------------0-0---0-0---0-0-|--0-0-----------------------------|

D |----------------------------------|----------------------------------|
A |----------------------------------|----------------------------------|
F |----------7-5-7-------------------|----------7-5-7---3-------5-------|
C |--0-------7-5-7-------------------|----------7-5-7---3-------5-------|
G |--0-------5-3-5---0-0---0-0---0-0-|--0-0-----5-3-5---1-------3-------|
C |--0---------------0-0---0-0---0-0-|--0-0-----------------------------|

(1st time)                            
D |----------------------------------|
A |----------------------------------|
F |----------------------------------|
C |--0--0-0-0---1----0--0-0-0--1-1-0-|
G |--0--0-0-0---1----0--0-0-0--1-1-0-|
C |--0--0-0-0---1----0--0-0-0--1-1-0-|

Repeat Verse, Pre-Chorus & Chorus

 (2nd time)
   Gtr I fade out
D |---------------------------------------------------------------------|
A |---------------------------------------------------------------------|
F |---------------------------------------------------------------------|
C |--0------------------------------------------------------------------|
G |--0------------------------------------------------------------------|
C |--0------------------------------------------------------------------|
  |
  | Gtr II                                                           4x
D ||----------------|---------------|---------------|------------------||
A ||*---------3-----|---------4-----|---------1-----|-----------------*||
F ||----------------|---------------|---------------|-------3----353---||
C ||---0-0----------|--0-0----------|--0-0----------|--0-0-----0-------||
G ||*---------------|---------------|---------------|-----------------*||
C ||----------------|---------------|---------------|------------------||

    Gtr I                        7x
D ||-------------------------------||-----------------------------------|
A ||*-----------------------------*||-----------------------------------|
F ||-------------------------------||------------------3-------5--------|
C ||---0---------------------------||---0--------------3-------5--------|
G ||*--0--------------------------*||---0--------------1-------3--------|
C ||---0---------------------------||---0-------------------------------|
  |
  | Gtr II                                                           4x
D ||----------------|---------------|---------------|------------------||
A ||*---------3-----|---------4-----|---------1-----|-----------------*||
F ||----------------|---------------|---------------|-------3----353---||
C ||---0-0----------|--0-0----------|--0-0----------|--0-0-----0-------||
G ||*---------------|---------------|---------------|-----------------*||
C ||----------------|---------------|---------------|------------------||

                                                          pinch harmonic
D  |---------------------------------|---------------------------------|
A  |---------------------------------|---------------------------------|
F  |---------------------------------|---------------------------------|
C  |---------------------------------|---------------------------------|
G  |--0-0---0-0---0-0---0-0---0-0---0|0---0-0---0-0---0-0--------------|
C  |--0-0---0-0---0-0---0-0---0-0---0|0---0-0---0-0---0-0-(3~~~)-------|

D ||---------------------------------|---------------------------------||
A ||*--------------------------------|--------------------------------*||
F ||---------------------------------|---------------------------------||
C ||---------------------------------|---------------------------------||
G ||*-0-0---0-0---0-0---0-0---0-0---0|0---0-0---0-0---0-0-3-0-3-0-3-5-*||
C ||--0-0---0-0---0-0---0-0---0-0---0|0---0-0---0-0---0-0-3-0-3-0-3-5--||

Chorus with 2x on "Here I am..."

   Gtr I
With wah on...
D |----------------------------------|----------------------------------|
A |----------------------------------|----------------------------------|
F |----------------------------------|----------------------------------|
C |----------------------------------|----------------------------------|
G |--------5-3---5---3---------------|--------5-3---5---3---------------|
C |--0----0-0----------0-0-3---------|--0----0-0----------0-0-3---------|
  |
  | Gtr II
D |----------------------------------|-----------------------------12\--|
A |----------------------------------|-----------------------------12\--|
F |----------------------------------|-----------------------------12\--|
C |----------------------------------|-----------------------------12\--|
G |----------------------------------|-----------------------------12\--|
C |----------------------------------|-----------------------------12\--|

                                  3x
D ||--------------------------------||----------------------------------|
A ||*-------7--------8---------3---*||----------------------------------|
F ||--------7--------7-----3-5------||----------------------------------|
C ||--------5--------5--------------||--0-------------------------------|
G ||*-0--0-----0--0----------------*||--0-------------------------------|
C ||--0--0-----0--0-----------------||--0-------------------------------|
Добавлено: 26.04.2012
Другие материалы по этой песне:
  • Аккорды и текст

Страница создана 20.03.2012
http://primanota.ru/disciple/wait-chords.htm
Привет, Гость.
Предлагаем пройти революционный курс по гитаре.
Подарок от PrimaNota.Ru, забирай!