PrimaNota.ru - самый крупный в мире бесплатный архив песенных текстов, аккордов, табулатур и нот


Disciple - Pheonix Rising - таба, видео

Регистрация Запомнить меня
Войти через:  Facebook Google Twitter Vk Yandex Mail.ru

Disciple - Pheonix Rising - таба, видео

Печатать
Просмотров: 117
SONG: PHEONIX RISING
ARTIST: DISCIPLE
ALBUM: SOUTHERN HOSPITALITY

TUNING: DROP C (C G C F A D)


ITS A LITTLE INCOMPLETE TOWARDS THE END BUT THE REST IS RIGHT


INTRO PT.1

SLIDE UP TO 15 FRET-ISH ON LOW E STRING AND BEND

INTRO PT.2
D[--------------------------------]
A[--------------------------------]
F[--------------------------------]
C[--0-0-3h5-0--0-3h5-0-0-3--5--0--]
G[--0-0-3h5-0--0-3h5-0-0-3--5--0--]
C[--0-0-3h5-0--0-3h5-0-0-3--5--0--]

"VERSE"

LET THE OPEN FROM THE INTRO HANG

PRE-CHORUS
D[-----]
A[-----]
F[--7--]
C[--X--]
G[--5--]
C[-----]

CHORUS
D[--------------]
A[--------------]
F[-----5--------]
C[--0--5--3--5--]
G[--0--3--3--5--]
C[--0-----3--5--]

DBL INTRO

"VERSE"

PRE-CHORUS

CHORUS

DBL INTRO

BRIDGE

PT. 1: SCAPE PICK SLOWLY DOWN LOW E STRING

PT: 2: [CORRECT ME IF IM WRONG. WHICH I PROBABLY AM]
D[--15b--13b--15b--17b--]
A[----------------------]
F[----------------------]
C[----------------------]
G[----------------------]
C[----------------------]

PT. 3: [JUST A BASIS-ITS PRETTY MUCH RANDOM..KIND OF]
D[--15-0-17-15-14-0-15-12--]
A[-------------------------]
F[-------------------------]
C[-------------------------]
G[-------------------------]
C[-------------------------]

PT. 4 [AGAIN-NOT SURE]
D[----------]
A[--17--15--]
F[--15--15--]
C[----------]
G[----------]
C[----------]

COOL PIANO BIT

CHORUS

DBL INTRO

ANOTHER BEND

OUTRO
D[-------------]
A[-------------]
F[-----6----7--]
C[--2-----2----]
G[--2-----2----]
C[--2-----2----]
Добавлено: 28.07.2012
Другие материалы по этой песне:
  • Аккорды и текст

Страница создана 28.07.2012
http://primanota.ru/disciple/pheonix-rising-chords.htm
Привет, Гость.
Предлагаем пройти революционный курс по гитаре.
Подарок от PrimaNota.Ru, забирай!