PrimaNota.ru - самый крупный в мире бесплатный архив песенных текстов, аккордов, табулатур и нот


Disciple - Regime Change - текст песни, таба, бас-таба, видео

Регистрация Запомнить меня
Войти через:  Facebook Google Twitter Vk Yandex Mail.ru

Disciple - Regime Change - текст песни, таба, бас-таба, видео

Печатать
Просмотров: 209
Уроки эстрадного вокала в Санкт-Петербурге
Song: Regime Change
Artist: Disciple
Album: Scars Remain (2006)
Tabbed by Josh Barber (j.osh05@yahoo.com)

Palm mute=...etc
Bend=b
Let it ring=~
Slide=/

Intro

Part 1
Guitar 1:
D--14141414-141414141414------------ x4 (14 not 1-4)-|
A----------------------------------------------------|

Part 2
Guitar 1:
D-------------------------|
A-------------------------|
F-------------------------|
C--0000-------------------|
G--0000-------------------| x4
C--0000-------------------|

Guitar 2:
D--------------------------|
A--------------------------|
F--------------------------|
C--0000-000-0-0------------|
G--0000-000-0-0------------| x4
C--0000-000-0-0------------|

Part 3
Guitar 1:
D--14141414-141414141414------------ x4 (14 not 1-4)-|
A----------------------------------------------------|

Guitar 2:
D--------------------------|
A--------------------------|
F--------------------------|
C--0000-000-0-0------------|
G--0000-000-0-0------------| x4
C--0000-000-0-0------------|
   .... ... . .

“Build It Up, Tear It Down!”

Part 4
Guitar 1 & 2:
D-------------------------          -----------------|
A-------------------------          -----------------|
F-------------10b---------          -----------------|
C--0000-0000--------------          -0000-000-0-0----|
G--0000-0000-------------- x7 then    -0000-000-0-0--|
C--0000-0000--------------          -0000-000-0-0----|
                                                                . .

Verse

“My fingers in the strings...”
Guitar 1: (Clean)
D-------------------------|
A-------------------------|
F-------------------------|
C-------------------------|
G---7/6/5—7/6/9-7/6/3-----| x2
C-------------------------|

Guitar 2: (Distorted)
D-------------------------        -------------|
A-------------------------        -------------|
F-------------------------        -------------|
C--0-0—--0-0---0-0~-------        -12/0--------|
G--0-0---0-0---0-0~------- x2 then     -12/0---|
C--0-0---0-0---0-0~-------        -12/0--------|
   . .   . .   . .

“Now I...”
Both Guitars:
D----------------------------------------|
A----------------------------------------|
F----------------------------------------|
C--0--------0--------0-------------------|
G--0—7/6/5--0—7/6/9--0—7/6/5-7/6/5-7/6/5-| x2
C--0--------0--------0-------------------|

D---------------|
A---------------|
F---------------|
C--3----5-------|
G--3----5-------|
C--3----5-------|

Chorus

“This is what I want...”
D-------------------------|
A-------------------------|
F-------------------------|
C--0-3-5-8-7-6------------|
G--0-3-5-8-7-6------------| x4
C--0-3-5-8-7-6------------|

After Chorus
Both Guitars:
D--------------------------|
A--------------------------|
F--------------------------|
C--0000-000-0-0------------|
G--0000-000-0-0------------| x4
C--0000-000-0-0------------|

Verse 2

“Scene of complacency...”
Guitar 1: (Clean)
D-------------------------|
A-------------------------|
F-------------------------|
C-------------------------|
G---7/6/5—7/6/9-7/6/3-----| x2
C-------------------------|

Guitar 2:
D--------------------------|
A--------------------------|
F--------------------------|
C--0000-000-0-0------------|
G--0000-000-0-0------------| x4
C--0000-000-0-0------------|
   .... ... . .

“Right now...”
Both Guitars:
D----------------------------------------|
A----------------------------------------|
F----------------------------------------|
C--0--------0--------0-------------------|
G--0—7/6/5--0—7/6/9--0—7/6/5-7/6/5-7/6/5-| x2
C--0--------0--------0-------------------|

D---------------|
A---------------|
F---------------|
C--3----5-------|
G--3----5-------|
C--3----5-------|

Chorus

“This is what I want...”
D-------------------------|
A-------------------------|
F-------------------------|
C--0-3-5-8-7-6------------|
G--0-3-5-8-7-6------------| x4
C--0-3-5-8-7-6------------|

Bridge

“And I'm so sorry...”
D----------------------|
A----------------------|
F----------------------|
C--7--6--5--8-9--------|
G--7--6--5--8-9--------| x2
C--7--6--5--8-9--------|

After Bridge

Part 1
Guitar 1:
D--2222-222222------------| x4
A-------------------------|

Part 2
Guitar 1:
D--2222-222222------------| x4
A-------------------------|

Guitar 2:
D--------------------------|
A--------------------------|
F--------------------------|
C--0000-000-0-0------------|
G--0000-000-0-0------------| x4
C--0000-000-0-0------------|

Part 3
Guitar 1:
D-------------------------|
A-------------------------|
F-------------------------|
C--0000-------------------|
G--0000-------------------| x4
C--0000-------------------|

Guitar 2:
D--------------------------|
A--------------------------|
F--------------------------|
C--0000-000-0-0------------|
G--0000-000-0-0------------| x4
C--0000-000-0-0------------|
        ... . .
“So Sorry!”

Solo

(Sorry, but I'm not sure what Guitar 1 plays for the solo yet)

Guitar 2:
D--------------------------|
A--------------------------|
F--------------------------|
C--0000-000-0-0------------|
G--0000-000-0-0------------| x8
C--0000-000-0-0------------|
        ... . .

Chorus

“This is what I want...”
D-------------------------|
A-------------------------|
F-------------------------|
C--0-3-5-8-7-6------------|
G--0-3-5-8-7-6------------| x4
C--0-3-5-8-7-6------------|

Then

“So sorry, try to understand...”
D-------------------------|
A-------------------------|
F-------------------------|
C--0---3---5---3----------|
G--0---3---5---3----------| x3
C--0---3---5---3----------|

D-------------------------|
A-------------------------|
F-------------------------|
C--0---3---5--------------|
G--0---3---5--------------|
C--0---3---5--------------|

End

Both Guitars:
D--------------------------|
A--------------------------|
F--------------------------|
C--0000-000-0-0------------|
G--0000-000-0-0------------| x3
C--0000-000-0-0------------|

This song is awesome!!! Definitely my fav on the entire album.
I just had to get this tab out there. Disciple Rocks! Enjoy.

J.Osh
Добавлено: 23.04.2012
Другие материалы по этой песне:
  • Аккорды и текст

Страница создана 26.02.2012
http://primanota.ru/disciple/regime-change-chords.htm
Привет, Гость.
Предлагаем пройти революционный курс по гитаре.
Подарок от PrimaNota.Ru, забирай!