PrimaNota.ru - самый крупный в мире бесплатный архив песенных текстов, аккордов, табулатур и нот


Disciple - Love Hate - таба, бас-таба, видео

Регистрация Запомнить меня
Войти через:  Facebook Google Twitter Vk Yandex Mail.ru

Disciple - Love Hate - таба, бас-таба, видео

Печатать
Просмотров: 132
Artist: Disciple
Song: Love Hate
Album: Scars Remain
tabbed by Alex Miclea (alex_omul@yahoo.com)

This one took me some time, but here it is...
Don't forget to lower both the E strings ;)

riff 1
D-----------------------------------------------------------|
B-----------------------------------------------------------|
G----0-9--0-7--0--5------0-9--0-10-9-7------0-5--0-3-0-0----|
D-----------------------------------------------------------|
A-----------------------------------------------------------|
D-0-------------------0------------------8------------------|

riff 2
D---------------------|
B---------------------|
G-3---3-3-3-3-5-5-----|
D-x---x-x-x-x-x-x-----|
A-1---1-1-1-1-3-3-----|
D---------------------|

riff 3
D---------------------------------------------------|
B---------------------------------------------------|
G---------5--5-----------5--5---3-3-3-3-3-3-3-3-----|
D-0--0-0--x--x---0--0-0--x--x---x-x-x-x-x-x-x-x-----|
A-0--0-0--3--3---0--0-0--3--3---1-1-1-1-1-1-1-1-----|
D-0--0-0---------0--0-0-----------------------------|

riff 4
D---------------------------------------------------|
B---------------------------------------------------|
G---------5--5-----------5--5---3-3-3-3-3-3-5-5-----|
D-0--0-0--x--x---0--0-0--x--x---x-x-x-x-x-x-x-x-----|
A-0--0-0--3--3---0--0-0--3--3---1-1-1-1-1-1-3-3-----|
D-0--0-0---------0--0-0-----------------------------|

riff 5
D-------------------------------------|
B-------------------------------------|
G-------------------------------------|
D-0--------------0--0--8--10--0--0----|
A-0--------------0--0--8--10--0--0----|
D-0--------------0--0--8--10--0--0----|
                 .  .  .  .   .
riff 6
D----------------------------------------|
B----------------------------------------|
G---------7---7------------3--------5----|
D-------7---7----7------3--------5-------|
A---5----------------1--------3----------|
D----------------------------------------|

riff 7
D------------------------------------|
B------------------------------------|
G------------------------------------|
D-0--0-0---0--0-0---8--8-8---3--3-3--|
A-0--0-0---0--0-0---8--8-8---3--3-3--|
D-0--0-0---0--0-0---8--8-8---3--3-3--|

riff 8
D-14--0-0--12-0-10-0-12--0-12-0-12-0-10-|
B---------------------------------------|
G---------------------------------------|
D---------------------------------------|
A---------------------------------------|
D---------------------------------------|

riff 9
D------------------|
B------------------|
G------------------|
D-0-0-0-0-0-0-0-0--|
A-0-0-0-0-0-0-0-0--|
D-0-0-0-0-0-0-0-0--|

riff 10
D------------------------------------------------|
B------------------------------------------------|
G------------------------------------------------|
D-0--0-0-------0--0-0-------8--8-8-------3--3-3--|
A-0--0-0-------0--0-0-------8--8-8-------3--3-3--|
D-0--0-0-------0--0-0-------8--8-8-------3--3-3--|

riff11a
D-----------------------------------------------------------------|
B------5--5------------5--6-5----------1--1-----------------------|
G-----------7-5---------------7-------------3-2--------5---5-3-5--|
D----7---------------7---------------3---------------5---5--------|
A-5---------------5---------------1---------------3---------------|
D-----------------------------------------------------------------|

riff11b
D-----------------------------------------------------------------|
B------5--5------------5--6-5----------1--1----------------6-5-3--|
G-----------7-5---------------7-------------3-2--------5----------|
D----7---------------7---------------3---------------5---5--------|
A-5---------------5---------------1---------------3---------------|
D-----------------------------------------------------------------|

riff11c
D-----------------------------------------------------------------|
B------5--5------------5--6-5----------1--1----------------5-3-5--|
G-----------7-5---------------7-------------3-2--------5----------|
D----7---------------7---------------3---------------5---5--------|
A-5---------------5---------------1---------------3---------------|
D-----------------------------------------------------------------|

riff 12
D------------------------------------|
B------------------------------------|
G------------------------------------|
D-0--0-0-------0--0-0-------0--0-0---|
A-0--0-0-------0--0-0-------0--0-0---|
D-0--0-0-------0--0-0-------0--0-0---|

riff 13
D------------------------------------------------------------------|
B------------------------------------------------------------------|
G--7-7-7-7-7-7-7-7-5-5-5-5-5-5-5-5-7-7-7-7-7-7-7-7-7-7-7-7-7-7-7-7-|
D--x-x-x-x-x-x-x-x-x-x-x-x-x-x-x-x-x-x-x-x-x-x-x-x-x-x-x-x-x-x-x-x-|
A--5-5-5-5-5-5-5-5-3-3-3-3-3-3-3-3-5-5-5-5-5-5-5-5-5-5-5-5-5-5-5-5-|
D------------------------------------------------------------------|

riff 14
D------------------------------------------------------------------|
B------------------------------------------------------------------|
G--7-7-7-7-7-7-7-7-5-5-5-5-5-5-5-5-7-7-7-7-5-5-5-5-7-7-7-7-5-5-5-5-|
D--x-x-x-x-x-x-x-x-x-x-x-x-x-x-x-x-x-x-x-x-x-x-x-x-x-x-x-x-x-x-x-x-|
A--5-5-5-5-5-5-5-5-3-3-3-3-3-3-3-3-5-5-5-5-3-3-3-3-5-5-5-5-3-3-3-3-|
D------------------------------------------------------------------|

riff 15
D-----------------------------------------------------------------------|
B-----------------------------------------------------------------------|
G--7-7-7-7-7-7-7-7-5-5-5-5-5-5-5-5-7-7-7-7-9-9-9-9-10-10-10-11-11-11-11-|
D--x-x-x-x-x-x-x-x-x-x-x-x-x-x-x-x-x-x-x-x-x-x-x-x-x-x-x-x--x--x--x--x--|
A--5-5-5-5-5-5-5-5-3-3-3-3-3-3-3-3-5-5-5-5-7-7-7-7-8-8-8-8--10-10-10-10-|
D-----------------------------------------------------------------------|

riff 16
D-----------------------------------|
B-----------------------------------|
G--3-3-3-3-3-3-3-3-5-5-5-5-5-5-5-5--|
D--x-x-x-x-x-x-x-x-x-x-x-x-x-x-x-x--|
A--1-1-1-1-1-1-1-1-3-3-3-3-3-3-3-3--|
D-----------------------------------|

riff 17
D------------------------------------|
B------------------------------------|
G--7--9--9-7-5---7--9--10-9-7--------|
D------------------------------------|
A------------------------------------|
D------------------------------------|

riff 1
riff 2
riff 3
riff 4
riff 5
riff 6
riff 7
riff 6
riff 7
riff 8
riff 9
riff 3
riff 4
riff 5
riff 6
riff 7
riff 6
riff 7
riff 8
riff 9
riff 4
riff 5
riff 10
riff 11a
riff 11b
riff 11c
riff 12
riff 3
riff 4
riff 12
riff 13
riff 14
riff 15
riff 16
riff 12
riff 17


That's it :) comments and suggestions at alex_omul@yahoo.com
Добавлено: 20.05.2012
Другие материалы по этой песне:
  • Аккорды и текст

Страница создана 22.03.2012
http://primanota.ru/disciple/love-hate-chords.htm
Привет, Гость.
Предлагаем пройти революционный курс по гитаре.
Подарок от PrimaNota.Ru, забирай!