PrimaNota.ru - самый крупный в мире бесплатный архив песенных текстов, аккордов, табулатур и нот


Disciple - Be The Quiet - текст песни, таба, видео

Регистрация Запомнить меня
Войти через:  Facebook Google Twitter Vk Yandex Mail.ru

Disciple - Be The Quiet - текст песни, таба, видео

Печатать
Просмотров: 34
-------------------------------------------------------------------------------
                             Be the quiet - Disciple
-------------------------------------------------------------------------------
Tabbed by:
E-mail:

My first Tab so don't hate but correct me :)
Tuning: Drop D

Intro Guitar 1
e|---------------------------------------------------------------------------|
B|5-5 5h6/8 6 5h6h5-- /998---------------------------------------------------|
G|5----------------5---------------------------------------------------------|
D|5--------------------------------------------------------------------------|x4
A|---------------------------------------------------------------------------|
D|---------------------------------------------------------------------------|
Intro Guitar 2
e|-------|
B|-------|
G|-------|
D|--10---|  x2
A|--10---|
D|--10---|

Guitar 2
e|------------------------------------------------|
B|------------------------------------------------|
G|------------------------------------------------|
D|10-10-10-10-10--8-8-8-8-8--11--10-10-10-10-10---|x4
A|10-10-10-10-10--8-8-8-8-8--11--10-10-10-10-10---|
D|10-10-10-10-10--8-8-8-8-8--11--10-10-10-10-10---|

e|--------------------------|   |------|
B|--------------------------|   |------|
G|-------------5---------5--|   |------|
D|6--5--1010-105--1010-105--|   |6--5--|
A|6--5--1010-10---1010-10---|x3 |6--5--|
D|6--5--1010-10---1010-10---|   |6--5--|

Guitar 1
e|--------------------------|
B|5-5 5h6/8 6 5h6h5-- /998--|
G|5----------------5--------|
D|5-------------------------|x4
A|--------------------------|
D|--------------------------|
Guitar 2:
e|-------|
B|-------|
G|-------|
D|--10---|  x4
A|--10---|
D|--10---|

Guitar 2
e|----------------------------------------------------------|
B|----------------------------------------------------------|
G|----------------------------------------------------------|
D|10--11h10-8-10-11-8--11h10-8-10-11-8--11h10-8-10-11-xxxx--|
A|10--11h10-8-10-11-8--11h10-8-10-11-8--11h10-8-10-11-xxxx--|
D|10--11h10-8-10-11-8--11h10-8-10-11-8--11h10-8-10-11-xxxx--|

e|------------------------------------------------|
B|------------------------------------------------|
G|------------------------------------------------|
D|10-10-10-10-10--8-8-8-8-8--11--10-10-10-10-10---|x4
A|10-10-10-10-10--8-8-8-8-8--11--10-10-10-10-10---|
D|10-10-10-10-10--8-8-8-8-8--11--10-10-10-10-10---|

e|--------------------------|   |------|
B|--------------------------|   |------|
G|-------------5---------5--|   |------|
D|6--5--1010-105--1010-105--|   |6--5--|
A|6--5--1010-10---1010-10---|x3 |6--5--|
D|6--5--1010-10---1010-10---|   |6--5--|

Guitar 1
e|--------------------------|
B|5-5 5h6/8 6 5h6h5-- /998--|
G|5----------------5--------|
D|5-------------------------|x4
A|--------------------------|
D|--------------------------|
Guitar 2
e|-------|
B|-------|
G|-------|
D|--10---|  x4
A|--10---|
D|--10---|

Guitar 1 Solo (may follow soon...please add if you figured it out yet)
e|---------------------------------------------------------------------------|
B|---------------------------------------------------------------------------|
G|---------------------------------------------------------------------------|
D|---------------------------------------------------------------------------|
A|---------------------------------------------------------------------------|
D|---------------------------------------------------------------------------|

Guitar 2
e|------------------------------------------------------|
B|------------------------------------------------------|
G|------------------------------------------------------|
D|10--11h10-8-10-11-8--11h10-8-10-11-8--11h10-8-10-11---|
A|10--11h10-8-10-11-8--11h10-8-10-11-8--11h10-8-10-11---|
D|10--11h10-8-10-11-8--11h10-8-10-11-8--11h10-8-10-11---|

e|----------------------------------------------------------|
B|----------------------------------------------------------|
G|----------------------------------------------------------|
D|10--11h10-8-10-11-8--11h10-8-10-11-8--11h10-8-10-11-xxxx--|
A|10--11h10-8-10-11-8--11h10-8-10-11-8--11h10-8-10-11-xxxx--|
D|10--11h10-8-10-11-8--11h10-8-10-11-8--11h10-8-10-11-xxxx--|

e|-----------------------------------------------------------|
B|-----------------------------------------------------------|
G|-----------------------------------------------------------|
D|10--11h10-8-10-11-8--11h10-8-10-11-8--11h10-8-xxx-x-11-8---|
A|10--11h10-8-10-11-8--11h10-8-10-11-8--11h10-8-xxx-x-11-8---|
D|10--11h10-8-10-11-8--11h10-8-10-11-8--11h10-8-xxx-x-11-8---|

e|-------------------------------------------------------------|
B|-------------------------------------------------------------|
G|-------------------------------------------------------------|
D|10--11h10-8-10-11-8--11h10-8-10-11-8--11h10-8--10-11--xx-x-10|
A|10--11h10-8-10-11-8--11h10-8-10-11-8--11h10-8--10-11--xx-x-10|
D|10--11h10-8-10-11-8--11h10-8-10-11-8--11h10-8--10-11--xx-x-10|

Guitar 1
e|--------------------------|
B|5-5 5h6/8 6 5h6h5-- /998--|
G|5----------------5--------|
D|5-------------------------|
A|--------------------------|
D|--------------------------|

e|--------------------------|
B|5-5 5h6/8 6 5h6h5-- /998--|
G|5----------------5--------|
D|5-------------------------|x4
A|--------------------------|
D|--------------------------|
Guitar 2
e|-------|
B|-------|
G|-------|
D|--10---|  x4
A|--10---|
D|--10---|

e|-----------------------------------------------------------|
B|-----------------------------------------------------------|
G|-----------------------------------------------------------|
D|10--11h10-8-10-11-8--11h10-8-10-11-8--11h10-8-xxx-x-11-8---|
A|10--11h10-8-10-11-8--11h10-8-10-11-8--11h10-8-xxx-x-11-8---|
D|10--11h10-8-10-11-8--11h10-8-10-11-8--11h10-8-xxx-x-11-8---|

e|------------------------------------------------------|
B|------------------------------------------------------|
G|------------------------------------------------------|
D|11h10-8-10-11-8--11h10-8-10-11-8--11h10-8-10-11-xxxx--|
A|11h10-8-10-11-8--11h10-8-10-11-8--11h10-8-10-11-xxxx--|
D|11h10-8-10-11-8--11h10-8-10-11-8--11h10-8-10-11-xxxx--|

************************************

| /   slide up
| \   slide down
| h   hammer-on
| p   pull-off
| x   Mute note

************************************
Добавлено: 10.12.2015
Другие материалы по этой песне:
  • Аккорды и текст

Страница создана 18.05.2012
http://primanota.ru/disciple/be-the-quiet-chords.htm
Привет, Гость.
Предлагаем пройти революционный курс по гитаре.
Подарок от PrimaNota.Ru, забирай!