PrimaNota.ru - самый крупный в мире бесплатный архив песенных текстов, аккордов, табулатур и нот


Disciple - Unstoppable - таба, видео

Регистрация Запомнить меня
Войти через:  Facebook Google Twitter Vk Yandex Mail.ru

Disciple - Unstoppable - таба, видео

Печатать
Просмотров: 107
Song: Unstoppable
Artist: Disciple
Album: O God Save Us All
Tuning: Drop C (CGCFAD)
Note: I'm sure it is mostly correct but if you have questions or corrections please comment!

0-14 Seconds:
Just listen to the song to get the rhythm. It is mostly in groups of 5 or 6
D|--------------------------------------------------------------------------|
A|--------------------------------------------------------------------------|
F|--------------------------------------------------------------------------|
C|--0-----------------------------------------------------------------------|
G|--0-----------------------------------------------------------------------|
C|--0-----------------------------------------------------------------------|

15-29 Seconds:
D|----------------------------------------------------------------|
A|----------------------------------------------------------------|
F|----------------------------------------------------------------|
C|------------------------0-------0-------0-------0---------------| (4x)
G|--0h3p0-----------------0(5x)---0(5x)---0(5x)---0(5x)-----------|
C|--------0-6-5-3-0----0--------0------0-------0------------------|

30-44 Seconds
D|---------------------------------------------------------------------|
A|---------------------------------------------------------------------|
F|---------------------------------------------------------------------|
C|--3--5--00000-------0--3--5--00000-------0--5--3---------------------|
G|--3--5--00000(9x)---0--3--5--00000(9x)---0--5--3---------------------|
C|--3--5--00000-------0--3--5--00000-------0--5--3---------------------| 

45-58 Seconds
D|---------------------------------------------------------------------|
A|---------------------------------------------------------------------|
F|---------------------------------------------------------------------|
C|--00000--------------------------------------------------------------| (4x)
G|--00000(3x)----------------------------------------------------------|
C|--00000--------------------------------------------------------------|

58-1:12
(12 and 15 frets are harmonics)
D|---------------------------------------------------------------------|
A|---------------------------------------------------------------------|
F|---------------------------------------------------------------------|
C|-00-xx-0--12-5-3-5-7----00--xx-0--15-5-3-5-7-------------------------| (2x)
G|-00-xx-0--12-5-3-5-7----00--xx-0--15-5-3-5-7-------------------------|
C|-00-xx-0--12-5-3-5-7----00--xx-0--15-5-3-5-7-------------------------|


1:12-1:20
D|----------------------------------------------------------------------|
A|----------------------------------------------------------------------|
F|----------------------------------------------------------------------|
C|--00000---------------------------00000--------0--3---5---------------|
G|--00000(4x)---0h3p0---------------00000(4x)----0--3---5---------------|
C|--00000-----------------0-6-5-3-0-00000--------0--3---5---------------|

1:20-1:34
D|------------------------------------------------------------------------|
A|------------------------------------------------------------------------|
F|------------------------------------------------------------------------|
C|----00000-------0--3--5--00-------0-5--3--------------------------------|
G|----00000(9x)---0--3--5--00(9x)---0-5--3--------------------------------|
C|----00000-------0--3--5--00-------0-5--3--------------------------------| 

1:34-1:48
D|-------------------------------------------------------------------------|
A|-------------------------------------------------------------------------|
F|-------------------------------------------------------------------------|
C|--00000------------------------------------------------------------------| 
G|--00000(12x)-------------------------------------------------------------|
C|--00000------------------------------------------------------------------|

1:48-2:02
(12 and 15 frets are harmonics)
D|---------------------------------------------------------------------|
A|---------------------------------------------------------------------|
F|---------------------------------------------------------------------|
C|-00-xx-0-—12-5-3-5-7----00--xx-0--15-5-3-5-7-------------------------| (2x)
G|-00-xx-0--12-5-3-5-7----00--xx-0--15-5-3-5-7-------------------------|
C|-00-xx-0--12-5-3-5-7----00--xx-0--15-5-3-5-7-------------------------|

2:02-2:17 
D|--------------------------------------------------------------------------|
A|--------------------------------------------------------------------------|
F|--------------------------------------------------------------------------|
C|--------------------------------------3-----------------------------------|
G|--5--------5-----------5------5-------3--(2x)-----------------------------|
C|-----3b-0----3b-0-5------3b-0---3b-0--3-----------------------------------|

2:17-2:34
(12 and 15 frets are harmonics)
D|-------------------------------------------------------------------------|
A|-------------------------------------------------------------------------|
F|-------------------------------------------------------------------------|
C|-00-xx-0—12-5-3-5-7----00-xx--0--15-5-3-5-7---------00000----------------| 
G|-00-xx-0-12-5-3-5-7----00-xx--0--15-5-3-5-7---(2x)--00000(4x)------------|
C|-00-xx-0—12-5-3-5-7----00-xx--0--15-5-3-5-7---------00000----------------|
Finished!
Please comment and rate! Thanks
Добавлено: 12.11.2013
Другие материалы по этой песне:
  • Аккорды и текст

Страница создана 12.11.2013
http://primanota.ru/disciple/unstoppable-chords.htm
Привет, Гость.
Предлагаем пройти революционный курс по гитаре.
Подарок от PrimaNota.Ru, забирай!