PrimaNota.ru - самый крупный в мире бесплатный архив песенных текстов, аккордов, табулатур и нот


Dir En Grey - Kr Cube - текст песни, бас-таба, видео

Регистрация Запомнить меня
Войти через:  Facebook Google Twitter Vk Yandex Mail.ru

Dir En Grey - Kr Cube - текст песни, бас-таба, видео

Печатать
Просмотров: 197
Авторы музыки: DIR EN GREY
Авторы текста: 京
-------------------------------------------------------------------------------
			     [KR] Cube - Dir en grey
-------------------------------------------------------------------------------
Tabbed by: DeadxFreedom
Email: R_to_the_core@hotmail.co.uk

Tuning: Standard - E A D G

Key: Bm Tempo: 192 BPM Time Signature: 4/4



     E  E    E   E  E   E  E  E     Q    Q    Q    Q     
G||------------------------------|----------------------|
D||------------------------7--6--|--L----4--------------|
A||-----------------9------------|-----------------4----|
E||--x--7s--10--10-----10--------|------------5---------|


  E  E  E  E   E  E  Q        Q.      E  E  E  E  E   
--------------------------|--------------------------|
--9-----------------------|--------------------------|
-----9--8--7--------------|--------------------------|
--------------10--9--7----|--10\------2-----2-----2--|


  E  E  Q    E   E  E   E     E  E  Q    E  E  Q       Q    Q    E   Q    E   
---------------------------|--------7----6-----9----|------------------------|
---------------------------|--9-------------8-------|------------------------|
--------4-----------9------|-----9------------------|------------------------|
--5--2-------7--10-----10--|------------------------|--6----6----x--/7----7--|


  E   Q    E  E  Q.        E   E  E   E  E  E  E   E    
-----------------7------|------------------------------|
-----------------9------|------------------------------|
--x--/9----9--x--9------|----------------5-------------|
------------------------|--7s--2--2s--6-----6--5h--6h--|


  E   E  E   E  E  E  E   E      E   E  E   E  E  E  E   E    
------------------------------|------------------------------|
------------------------------|------------------------------|
----------------5-------------|----------------5-------------|
--7s--2--2s--6-----6--5h--6h--|--7s--2--2s--6-----6--5h--6h--|


  E  E  E   E  E  E  E  E     E   E  E   E  E  E  E   E    
---------------------------|------------------------------|
---------------------------|------------------------------|
---------------------------|----------------5-------------|
--7--2--2--/6-----5-----5--|--7s--2--2s--6-----6--5h--6h--|


  E   E  E   E  E  E  E   E      E   E  E   E  E  E  E   E    
------------------------------|------------------------------|
------------------------------|------------------------------|
----------------5-------------|----------------5-------------|
--7s--2--2s--6-----6--5h--6h--|--7s--2--2s--6-----6--5h--6h--|


  E  E  E   E  E  E  E  E     E   E  E   E  E  E  E   E    
---------------------------|------------------------------|
---------------------------|------------------------------|
---------------------------|----------------5-------------|
--7--2--2--/6-----5-----5--|--7s--2--2s--6-----6--5h--6h--|


  E   E  E   E  E  E  E   E      E   E  E   E  E  E  E   E    
------------------------------|------------------------------|
------------------------------|------------------------------|
----------------5-------------|----------------5-------------|
--7s--2--2s--6-----6--5h--6h--|--7s--2--2s--6-----6--5h--6h--|


  E  E  E   E  E  E  E  E     E   E  E   E  E  E  E   E    
---------------------------|------------------------------|
---------------------------|------------------------------|
---------------------------|----------------5-------------|
--7--2--2--/6-----5-----5--|--7s--2--2s--6-----6--5h--6h--|


  E   E  E   E  E  E  E   E      E   E  E   E  E  E  E   E    
------------------------------|------------------------------|
------------------------------|------------------------------|
----------------5-------------|----------------5-------------|
--7s--2--2s--6-----6--5h--6h--|--7s--2--2s--6-----6--5h--6h--|


  E  E  E   E  E  E  E  E     E  E  E  E  E  E  E  E   
---------------------------|--------------------------|
---------------------------|-----------4-----------4--|
---------------------------|--2--3--2-----2--3--2-----|
--7--2--2--/6-----5-----5--|--------------------------|


  E  E  E  E  E  E  E  E     E  E  E  E  E  E  E  E   
--------------------------|--------------------------|
-----------4-----------4--|-----------4-----------4--|
--2--3--2-----2--3--2-----|--2--3--2-----2--3--2-----|
--------------------------|--------------------------|


  E  E  E  E  E  E  E  E     E  E  E  E  E  E  E  E   
--------------------------|--------------------------|
-----------4-----------4--|-----------4-----------4--|
--2--3--2-----2--3--2-----|--2--3--2-----2--3--2-----|
--------------------------|--------------------------|


  E  E  E  E  E  E  E  E     E  E  E  E  E  E  E  E   
--------------------------|--------------------------|
-----------4-----------4--|-----------4-----------4--|
--2--3--2-----2--3--2-----|--2--3--2-----2--3--2-----|
--------------------------|--------------------------|


  E  E  E  E  E  E  E  E     E  E  E  E  E  E  E  E   
--------------------------|--------------------------|
-----------4-----------4--|-----------4-----------4--|
--2--3--2-----2--3--2-----|--2--3--2-----2--3--2-----|
--------------------------|--------------------------|


  E  E  E  E  E  E  E  E     E  E  E  E  E  E  E  E   
--------------------------|--------------------------|
-----------4-----------4--|-----------4-----------4--|
--2--3--2-----2--3--2-----|--2--3--2-----2--3--2-----|
--------------------------|--------------------------|


  E  E  E  E  E  E  E  E     E  E  E  E  E  E  E  E   
--------------------------|--------------------------|
-----------4-----------4--|-----------4-----------4--|
--2--3--2-----2--3--2-----|--2--3--2-----2--3--2-----|
--------------------------|--------------------------|


  E  E  E  E  E  E  E  E     E  E  E  E  E  E  E  E   
--------------------------|--------------------------|
-----------4-----------4--|-----------4-----------4--|
--2--3--2-----2--3--2-----|--2--3--2-----2--3--2-----|
--------------------------|--------------------------|


  E  E  E  E  E  E  E  E     E   E  E   E  E  E  E   E    
--------------------------|------------------------------|
--------------------------|------------------------------|
--2--2--2--2--2--2--2--2--|----------------5-------------|
--------------------------|--7s--2--2--/6-----6--5h--6h--|


  E   E  E   E  E  E  E   E      E   E  E   E  E  E  E   E    
------------------------------|------------------------------|
------------------------------|------------------------------|
----------------5-------------|----------------5-------------|
--7s--2--2--/6-----6--5h--6h--|--7s--2--2--/6-----6--5h--6h--|


  E   E  E   E  E  E  E   E      E   E  E   E  E  E  E   E    
------------------------------|------------------------------|
------------------------------|------------------------------|
----------------5-------------|----------------5-------------|
--7s--2--2--/6-----6--5h--6h--|--7s--2--2--/6-----6--5h--6h--|


  E   E  E   E  E  E  E   E      E   E  E   E  E  E  E   E    
------------------------------|------------------------------|
------------------------------|------------------------------|
----------------5-------------|----------------5-------------|
--7s--2--2--/6-----6--5h--6h--|--7s--2--2--/6-----6--5h--6h--|


  E   E  E   E  E  E  E  E     E  E  E  E  E  E  E  E   
----------------------------|--------------------------|
----------------------------|-----------4-----------4--|
----------------------------|--2--3--2-----2--3--2-----|
--7s--2--2--/6-----5-----5--|--------------------------|


  E  E  E  E  E  E  E  E     Q    E  E  E  E  E  E     E  E  E  E  E  E  E  E   
--------------------------|-------------------------|--------------------------|
--------------------------|-------------------------|--------2--2--------------|
--2--2--1--1--0--0--------|-------------------------|--------------5--5--4--4--|
--------------------4--4--|--3----3--3--3--3--3--3--|--3--3--------------------|


  Q    E  E  E  E  E  E     E  E  E  E  E  E  E  E     Q    E  E  E  E  E  E   
-------------------------|--------------------------|-------------------------|
-------------------------|--------------------------|-------------------------|
--5----5--5--5--5--5--5--|--5--5--5--5--5--5--5--4--|-------------------------|
-------------------------|--------------------------|--2----2--2--2--2--2--2--|


  E  E  E  E  E  E  E  E     E  E  E  E  E  E  E  E   
--------------------------|--------------------------|
--------------------------|-----------------2--------|
--------------4--4--------|--2--2--5--2--2-----2--2--|
--2--2--5--5--------5--5--|--------------------------|


  E  E  E  E  E  E  E  E     Q    E  E  E  E  E  E     E  E  E  E  E  E  E  E   
--------------------------|-------------------------|--------------------------|
--4-----------------------|-------------------------|--------2--2--------------|
-----2--2--0--0--0--------|-------------------------|--------------5--5--4--4--|
--------------------3--2--|--3----3--3--3--3--3--3--|--3--3--------------------|


  E  E  E  E  E  E  E  E     E  E  E  E  E  E  E  E   
--------------------------|--------------------------|
--------------------------|--------------------------|
--5--5--5--5--5--5--5--5--|--5--5--5--5--5--5--5--4--|
--------------------------|--------------------------|


  E  E  E  E  E  E  E  E     E  E  E  E  E  E  E  E   
--------------------------|--------------------------|
--------------------------|--------------------------|
--------------------------|--------------------------|
--2--2--2--2--2--2--2--2--|--5--5--5--5--5--5--5--5--|


  E  E  E  E  E  E  E  E     E  E  E  E  E  E  E  E   
--------------------------|--------------------------|
--------------------------|--------------------------|
--------------------------|--------------------------|
--2--2--2--2--2--2--2--2--|--2--2--3--3--5--5--6--6--|


  E   E  E   E  E  E  E   E      E   E  E   E  E  E  E   E    
------------------------------|------------------------------|
------------------------------|------------------------------|
----------------5-------------|----------------5-------------|
--7s--2--2--/6-----6--5h--6h--|--7s--2--2--/6-----6--5h--6h--|


  E   E  E   E  E  E  E   E      E  E  E   E  E  E  E  E   
------------------------------|---------------------------|
------------------------------|---------------------------|
----------------5-------------|---------------------------|
--7s--2--2--/6-----6--5h--6h--|--7--2--2--/6-----5-----5--|


  E   E  E   E  E  E  E   E      E   E  E   E  E  E  E   E    
------------------------------|------------------------------|
------------------------------|------------------------------|
----------------5-------------|----------------5-------------|
--7s--2--2--/6-----6--5h--6h--|--7s--2--2--/6-----6--5h--6h--|


  E   E  E   E  E  E  E   E      E  Q     E   E   Q.      
------------------------------|--------------------------|
------------------------------|--------------------------|
----------------5-------------|-----5s----9------12------|
--7s--2--2--/6-----6--5h--6h--|--7-----------10----------|


  E   E  E   E  E  E  E   E      E   E  E   E  E  E  E   E    
------------------------------|------------------------------|
------------------------------|------------------------------|
----------------5-------------|----------------5-------------|
--7s--2--2--/6-----6--5h--6h--|--7s--2--2--/6-----6--5h--6h--|


  E   E  E   E  E  E  E   E      E  E  E   E  E  E  E  E   
------------------------------|---------------------------|
------------------------------|---------------------------|
----------------5-------------|---------------------------|
--7s--2--2--/6-----6--5h--6h--|--7--2--2--/6-----5-----5--|


  E   E  E   E  E  E  E   E      E   E  E   E  E  E  E   E    
------------------------------|------------------------------|
------------------------------|------------------------------|
----------------5-------------|----------------5-------------|
--7s--2--2--/6-----6--5h--6h--|--7s--2--2--/6-----6--5h--6h--|


  E   E  E   E  E  E  E   E      E  Q     E   E   Q.      
------------------------------|--------------------------|
------------------------------|--------------------------|
----------------5-------------|-----5s----9------12------|
--7s--2--2--/6-----6--5h--6h--|--7-----------10----------|


  E  E  E  E  E  E  E  E     E  E  E  E  E  E  E  E   
--------------------------|--------------------------|
--------------------------|--------------------------|
--------------------------|--------------------------|
--x--7--x--7--x--7--x--7--|--x--7--x--7--x--7--x--7--|


  E  E  E  E  E  E  E  E     E  E  E  E  E  E  E  E   
--------------------------|--------------------------|
--------------------------|--------------------------|
--------------------------|--------------------------|
--x--7--x--7--x--7--x--7--|--x--7--x--7--x--7--x--7--|


  E  E  E  E  E  E  E  E     E  E  E  E  E  E  E  E   
--------------------------|--------------------------|
--------------------------|--------------------------|
--------------------------|--------------------------|
--x--7--x--7--x--7--x--7--|--x--7--x--7--x--7--x--7--|


  E  E  E  E  E  E  E  E     E  E  E  E  E  E  E  E   
--------------------------|--------------------------|
--------------------------|--------------------------|
--------------------------|--------------------------|
--x--7--x--7--x--7--x--7--|--x--7--x--7--x--7--x--7--|


  E  E  E  E  E  E  E  E     E  E  E  E  E  E  E  E   
--------------------------|--------------------------|
--------------------------|--------------------------|
--------------------------|--------------------------|
--x--7--x--7--x--7--x--7--|--x--7--x--7--x--7--x--7--|


  E  E  E  E  E  E  E  E     E  E  E  E  E  E  E  E   
--------------------------|--------------------------|
--------------------------|--------------------------|
--------------------------|--------------------------|
--x--7--x--7--x--7--x--7--|--x--7--x--7--x--7--x--7--|


  E  E  E  E  E  E  E  E     E  E  E  E  E  E  E  E   
--------------------------|--------------------------|
--------------------------|--------------------------|
--------------------------|--------------------------|
--x--7--x--7--x--7--x--7--|--x--7--x--7--x--7--x--7--|


  E  E  E  E  E  E  E  E      Q.      E  H            E  E  E  E  E   E  E  E   
--------------------------|------------------------|---------------------------|
--------------------------|------------------------|--7------------------------|
--------------------------|------------------------|-----9--8--7--L------------|
--x--7--x--7--x--7--x--7--|--10\------8--L\--------|-----------------10--9--7--|


  E  E  E  E  E   E  E  E     E  E  E  E  E   E  E  E   
---------------------------|---------------------------|
--7------------------------|--7------------------------|
-----9--8--7--L------------|-----9--8--7--L------------|
-----------------10--9--7--|-----------------10--9--7--|


  E  E  E  E  E   E  E  E     E  E  E  E  E   E  E  E   
---------------------------|---------------------------|
--7------------------------|--7------------------------|
-----9--8--7--L------------|-----9--8--7--L------------|
-----------------10--9--7--|-----------------10--9--7--|


  E  E  E  E  E   E  E  E     E  E  E  E  E   E  E  E   
---------------------------|---------------------------|
--7------------------------|--7------------------------|
-----9--8--7--L------------|-----9--8--7--L------------|
-----------------10--9--7--|-----------------10--9--7--|


  E  E  E  E  E  E  E  E     E  E  E  E   E  E  E  E   
--------------------------|---------------------------|
--------------------7--6--|---------------------------|
--------8--7--L--7--------|------------------0--------|
--7--7--------------------|--7--7--8--7--10-----7--8--|


  E  E  E  E   E  E  E  E     E  E  E  E   E  E  E  E   
---------------------------|---------------------------|
---------------------------|---------------------------|
------------------0--------|------------------0--------|
--7--7--8--7--10-----7--8--|--7--7--8--7--10-----7--8--|


  E  E  E   E  E   E   E   E     E  E  E  E   E  E  E  E   
------------------------------|---------------------------|
------------------------------|---------------------------|
---------------9------12--11--|------------------0--------|
--7--7--9--10-----10----------|--7--7--8--7--10-----7--8--|


  E  E  E  E   E  E  E  E     E  E  E  E   E  E  E  E   
---------------------------|---------------------------|
---------------------------|---------------------------|
------------------0--------|------------------0--------|
--7--7--8--7--10-----7--8--|--7--7--8--7--10-----7--8--|


  E  E  E  E  E  E  E  E     Q    E  E  E  E  E  E     E  E  E  E  E  E  E  E   
--------------------------|-------------------------|--------------------------|
--------------------------|-------------------------|--------2--2--------------|
--------------------------|-------------------------|--------------5--5--4--4--|
--7--7--6--6--5--5--4--4--|--3----3--3--3--3--3--3--|--3--3--------------------|


  Q    E  E  E  E  E  E     E  E  E  E  E  E  E  E     Q    E  E  E  E  E  E   
-------------------------|--------------------------|-------------------------|
-------------------------|--------------------------|-------------------------|
--5----5--5--5--5--5--5--|--5--5--5--5--5--5--5--4--|-------------------------|
-------------------------|--------------------------|--2----2--2--2--2--2--2--|


  E  E  E  E  E  E  E  E     E  E  E  E  E  E  E  E   
--------------------------|--------------------------|
--------------------------|-----------------2--------|
--------------4--4--------|--2--2--5--2--2-----2--2--|
--2--2--5--5--------5--5--|--------------------------|


  E  E  E  E  E  E  E  E     Q    E  E  E  E  E  E     E  E  E  E  E  E  E  E   
--------------------------|-------------------------|--------------------------|
--4-----------------------|-------------------------|--------2--2--------------|
-----2--2--0--0--0--------|-------------------------|--------------5--5--4--4--|
--------------------3--2--|--3----3--3--3--3--3--3--|--3--3--------------------|


  E  E  E  E  E  E  E  E     E  E  E  E  E  E  E  E   
--------------------------|--------------------------|
--------------------------|--------------------------|
--5--5--5--5--5--5--5--5--|--5--5--5--5--5--5--5--4--|
--------------------------|--------------------------|


  E  E  E  E  E  E  E  E     E  E  E  E  E  E  E  E   
--------------------------|--------------------------|
--------------------------|--------------------------|
--------------------------|--------------------------|
--2--2--2--2--2--2--2--2--|--5--5--5--5--5--5--5--5--|


  E  E  E  E  E  E  E  E     E  E  H        Q     
--------------------------|----------------------|
--------------------------|----------------------|
--------------------------|----------------------|
--2--2--2--2--2--2--2--2--|--2-------------------|


  E   E  E   E  E  E  E   E      E   E  E   E  E  E  E   E    
------------------------------|------------------------------|
------------------------------|------------------------------|
----------------5-------------|----------------5-------------|
--7s--2--2--/6-----6--5h--6h--|--7s--2--2--/6-----6--5h--6h--|


  E   E  E   E  E  E  E   E      E  E  E   E  E  E  E  E   
------------------------------|---------------------------|
------------------------------|---------------------------|
----------------5-------------|---------------------------|
--7s--2--2--/6-----6--5h--6h--|--7--2--2--/6-----5-----5--|


  E   E  E   E  E  E  E   E      E   E  E   E  E  E  E   E    
------------------------------|------------------------------|
------------------------------|------------------------------|
----------------5-------------|----------------5-------------|
--7s--2--2--/6-----6--5h--6h--|--7s--2--2--/6-----6--5h--6h--|


  E   E  E   E  E  E  E   E      E  Q     E   E   Q.      
------------------------------|--------------------------|
------------------------------|--------------------------|
----------------5-------------|-----5s----9------12------|
--7s--2--2--/6-----6--5h--6h--|--7-----------10----------|


  E   E  E   E  E  E  E   E      E   E  E   E  E  E  E   E    
------------------------------|------------------------------|
------------------------------|------------------------------|
----------------5-------------|----------------5-------------|
--7s--2--2--/6-----6--5h--6h--|--7s--2--2--/6-----6--5h--6h--|


  E   E  E   E  E  E  E   E      E  E  E   E  E  E  E  E   
------------------------------|---------------------------|
------------------------------|---------------------------|
----------------5-------------|---------------------------|
--7s--2--2--/6-----6--5h--6h--|--7--2--2--/6-----5-----5--|


  E   E  E   E  E  E  E   E      E   E  E   E  E  E  E   E    
------------------------------|------------------------------|
------------------------------|------------------------------|
----------------5-------------|----------------5-------------|
--7s--2--2--/6-----6--5h--6h--|--7s--2--2--/6-----6--5h--6h--|


  E   E  E   E  E  E  E   E      E  Q     E   E   Q.      
------------------------------|--------------------------|
------------------------------|--------------------------|
----------------5-------------|-----5s----9------12------|
--7s--2--2--/6-----6--5h--6h--|--7-----------10----------|


  E   E  E   E  E  E  E   E      E   E  E   E  E  E  E   E    
------------------------------|------------------------------|
------------------------------|------------------------------|
----------------5-------------|----------------5-------------|
--7s--2--2s--6-----6--5h--6h--|--7s--2--2s--6-----6--5h--6h--|


  E   E  E   E  E  E  E   E      E  E  E   E  E  E  E  E   
------------------------------|---------------------------|
------------------------------|---------------------------|
----------------5-------------|---------------------------|
--7s--2--2s--6-----6--5h--6h--|--7--2--2--/6-----5-----5--|


  E   E  E   E  E  E  E   E      E   E  E   E  E  E  E   E    
------------------------------|------------------------------|
------------------------------|------------------------------|
----------------5-------------|----------------5-------------|
--7s--2--2s--6-----6--5h--6h--|--7s--2--2s--6-----6--5h--6h--|


  E   E  E   E  E  E  E   E      E  E  E   E  E  E  E  E   
------------------------------|---------------------------|
------------------------------|---------------------------|
----------------5-------------|---------------------------|
--7s--2--2s--6-----6--5h--6h--|--7--2--2--/6-----5-----5--|


  E  E  E   E  E   E   E   E     Q    Q    Q    Q     
------------------------------|----------------------|
------------------------------|----------------------|
---------------9------12--11--|--L----9----0---------|
--7--7--9--10-----10----------|-----------------9----|


  E  E  E   E  E   E   E   E     Q     E  E  H         
------------------------------|-----------------------|
------------------------------|-----------------------|
---------------9------12--11--|--L--------------------|
--7--7--9--10-----10----------|-------10--7-----------|


  E  E  E   E  E   E   E   E     Q    Q    Q    Q     
------------------------------|----------------------|
------------------------------|----------------------|
---------------9------12--11--|--L----9----0---------|
--7--7--9--10-----10----------|-----------------9----|


  E  E  E   E  E   E   E   E     Q     E  E  H         
------------------------------|-----------------------|
------------------------------|-----------------------|
---------------9------12--11--|--L--------------------|
--7--7--9--10-----10----------|-------10--7-----------|


  E  E  E   E  E   E   E   E     Q    Q    Q    Q     
------------------------------|----------------------|
------------------------------|----------------------|
---------------9------12--11--|--L----9----0---------|
--7--7--9--10-----10----------|-----------------9----|


  E  E  E   E  E   E   E   E     Q     E  E  H         
------------------------------|-----------------------|
------------------------------|-----------------------|
---------------9------12--11--|--L--------------------|
--7--7--9--10-----10----------|-------10--7-----------|


  E  E  E   E  E   E   E   E     Q    Q    Q    Q     
------------------------------|----------------------|
------------------------------|----------------------|
---------------9------12--11--|--L----9----0---------|
--7--7--9--10-----10----------|-----------------9----|


  E  E  E   E  E   E   E   E     Q     E  E  H                      
------------------------------|-----------------------|-----------||
------------------------------|-----------------------|-----------||
---------------9------12--11--|--L--------------------|-----------||
--7--7--9--10-----10----------|-------10--7-----------|-----------||




Duration Legend
---------------
W - whole
H - half
Q - quarter
E - 8th
S - 16th
T - 32nd
X - 64th
. - note dotted
|-n-|  - n-tuplets


Tablature Legend
----------------
L - tied note
x - dead note
g - grace note
(n) - ghost note
> - accentuded note
NH - natural harmonic
AH - artificial harmonic
TH - tapped harmonic
SH - semi harmonic
PH - pitch harmonic
h - hammer on
p - pull off
b - bend
br - bendRelease
pb - preBend
pbr - preBendRelease
brb - bendReleaseBend
\n/ - tremolo bar dip
\n - tremolo bar dive
-/n - tremolo bar Release up
/n\ - tremolo bar inverted dip
/n - tremolo bar return
-\n - tremolo bar Release down
S - shift slide
s - legato slide
/ -  slide into from below or out of upwards
\ -  slide into from above or out of downwards
~ - vibrato
W - wide vibrato
tr - trill
TP - tremolo picking
T - tapping
S - slap
P - pop
< - fade in
^ - brush up
v - brush down
Добавлено: 20.06.2012
Другие материалы по этой песне:

Страница создана 24.03.2012
http://primanota.ru/dir-en-grey/kr-cube-chords.htm
Привет, Гость.
Предлагаем пройти революционный курс по гитаре.
Подарок от PrimaNota.Ru, забирай!