PrimaNota.ru - самый крупный в мире бесплатный архив песенных текстов, аккордов, табулатур и нот


Dir En Grey - C - текст песни, таба, видео

Регистрация Запомнить меня
Войти через:  Facebook Google Twitter Vk Yandex Mail.ru

Dir En Grey - C - текст песни, таба, видео

Печатать
Просмотров: 157
Авторы музыки: DIR EN GREY
Авторы текста: 京
Kaoru - Intro RIFF
D#|-----------------------------------------------------------|
A#|-----------0----------------------------0----------0-------|
F#|---------0-----------0----------------0----------0---------|
C#|4-4----4------4-4---------4--4-4----4-------4--4--------4-4|
G#|2-2-----------2-2------2-----2-2------------2--------2-----|
C#|2-2-----------2-2------------2-2------------2--------------|

Die - Intro RIFF
D#|-----------------------------------------------------------|
A#|-----------------------------------------------------------|
F#|-----------------------------------------------------------|
C#|-----------------------------------------------------------|
G#|2-2-----------2-2------------2-2------------2--------------|
C#|2-2-----------2-2------------2-2------------2--------------|

Kaoru - Main RIFF
D#|-------------------------------------------------------------------------------------------------------|
A#|-------------------------------------------------------------------------------------------------------|
F#|-------------------------------------------------------------------------------------------------------|
C#|-------------------------------------------------------------------------------------------------------| x2
G#|2-2---2--5-0--2-2---2--5-0--2-2---2--5-0--2-2---------2-2---2--5-0--2-2---2--5-0--2-2---2--5-0--2-2---3|
C#|2-2---2--5-0--2-2---2--5-0--2-2---2--5-0--2-2---8-----2-2---2--5-0--2-2---2--5-0--2-2---2--5-0--2-2---3|
                                                   ^

Die - Main RIFF
D#|-------------------------------------------------------------------------------------------------------|
A#|----------------------------------------------------------------------------------------------------5--|
F#|----------------------------------------------------------------------------------------------------5--|
C#|----------------------------------------------------------------------------------------------------5--| x2
G#|2-2---2--5-0--2-2---2--5-0--2-2---2--5-0--2-2-----3---2-2---2--5-0--2-2---2--5-0--2-2---2--5-0--2-2-5--|
C#|2-2---2--5-0--2-2---2--5-0--2-2---2--5-0--2-2-----3---2-2---2--5-0--2-2---2--5-0--2-2---2--5-0--2-2----|
                                                                                                       H

Kaoru - RIFF 1
D#|-------------------------------------------------------------------------------------------------------------------------------------|
A#|----------------------0--------0-----------------0--------0-------------------0----------0-------------------------------------------|
F#|----------------0-----------------0--------0------------------0---------0---------------------0--------------------------------------|
C#|----------4--------------------------4----------------------------4------------------------------------------------------------------|
G#|2-0-2-2-------------------2---------------------------2-----------------------------2-----------------3--------------------------0---|
C#|2-0-2-2-----------------------------------------------------------------------------------------------3----------------------2-5-0---|

Die - RIFF 1
D#|-------------------------------------------------------------------------------------------------------------------------------------|
A#|---------------------------------------------------------------------------------------------------------12----12------10--12-10-----|
F#|---------7-7-7-7-7-7-4-4-44444-4-444444-7-7-7-7-77-4-4-44444-4-44444----7-77777-4-4-44444-4-444444---------12----12--12--------------|
C#|---------7-7-7-7-7-7-4-4-44444-5-555555-7-7-7-7-77-4-4-44444-5-55555----7-77777-4-4-44444-5-555555-----12----12----12----12----------|
G#|2-0-2-2--------------------------------------------------------------------------------------------------------------------------0---|
C#|2-0-2-2--------------------------------------------------------------------------------------------------------------------------0---|
            X X X X X X X X XXXXX X XXXXXX X X X X XX X X XXXXX X XXXXX    X XXXXX X X XXXXX X XXXXXX X     X     X     X

Kaoru -
D#|-----------------|
A#|-----------------|
F#|-----------------|
C#|2-0--------------|
G#|----2---0-2-0-2-2|
C#|--------0-2-0-2-2|

Die -
D#|-----------------|
A#|-----------------|
F#|9-7--------------|
C#|----9------------|
G#|--------0-2-0-2-2|
C#|--------0-2-0-2-2|

Kaoru - Repeat Main RIFF x2
Die   - Repeat Main RIFF x2

Kaoru - Before Chorus RIFF
D#|---------------------------------------------------------------------------------------------------|
A#|---------------------------------------------------------------------------------------------------|
F#|---------------------------------------------------------------------------------------------------|
C#|-------------5-5-5-5-5--7-7-7-7-7-7--5-5-5-5-5-5---------------5-5-5-5-5-5-5-----------------------|
G#|2-0-2-2------3-3-3-3-3--5-5-5-5-5-5--2-2-2-2-2-2--2-2-2-2-2-2--3-3-3-3-3-3-3-0-0-0-0-0--1-1-1-1-1-1|
C#|2-0-2-2-------------------------------------------2-2-2-2-2-2----------------0-0-0-0-0--1-1-1-1-1-1|
                                                                                  X X X X  X X X X X X

Die - Before Chorus RIFF
D#|-------------12--------------10-----------15-14----12--------10-----------10-----------------------|
A#|----------------12-----10-12----12--10-12-------12-----10-12----12-10--12--------------------------|
F#|---------------------------------------------------------------------------------------------------|
C#|---------------------------------------------------------------------------------------------------|
G#|2-0-2-2----------------------------------------------------------------------0-0-0-0-0--1-1-1-1-1-1|
C#|2-0-2-2----------------------------------------------------------------------0-0-0-0-0--1-1-1-1-1-1|
                                                                                  X X X X    X X X X X

Kaoru - Chorus RIFF
D#|-----------------------------------------------------------------------------------------------------|
A#|-----------------------------------------------------------------------------------------------------|
F#|-----------------------------------------------------------------------------------------------------|
C#|-----------------------------------------------------------------------------------------------------| x2
G#|2-2-2-2---2-2-2-2--2-2-2-5-5-5-5--5-5-5-5--5-5-5-0-0-0-0--0-0-0-0--0-0-0--7--5--7-5-5-5--7--5--7-5-0-|
C#|2-2-2-2---2-2-2-2--2-2-2-5-5-5-5--5-5-5-5--5-5-5-0-0-0-0--0-0-0-0--0-0-0--7--5--7-5-5-5--7--5--7-5-0-|

Die - Chorus RIFF
D#|-----------------------------------------------------------------------------------------------------|
A#|8-8-8-7---8-8-8-7--8-8-8-7-8-8-7--8-8-8-7--8-8-8-7-8-8-7--8-8-8-7--8-8-7-----------------------------|
F#|7-7-7-7---7-7-7-7--7-7-7-7-7-7-7--7-7-7-7--7-7-7-7-7-7-7--7-7-7-7--7-7-7-----------------------------|
C#|-----------------------------------------------------------------------------------------------------| x2
G#|--------------------------------------------------------------------------7--5--7-5-5-5--7--5--7-5-0-|
C#|--------------------------------------------------------------------------7--5--7-5-5-5--7--5--7-5-0-|

Kaoru + Die - Ending RIFF
D#|--------------------------------------------------------------------------------------------------------|
A#|--------------------------------------------------------------------------------------------------------|
F#|--------------------------------------------------------------------------------------------------------|
C#|--------------------------------------------------------------------------------------------------------|
G#|2-2--5--0---2-2--5--0-2-2--2-2--5--0---2-2--5--0-2---2-2--5--0---2-2--5--0-2-2--2-2--5--0---2-2--5--0-2-|
C#|2-2--5--0---2-2--5--0-2-2--2-2--5--0---2-2--5--0-2---2-2--5--0---2-2--5--0-2-2--2-2--5--0---2-2--5--0-2-|

Kaoru -
D#|---------------------------------------------------------------------------|
A#|-------------0------------------------------0------------------------------|
F#|-----------0------------0-----------------0--------------------------------|
C#|---------4------------------4-----------4----------------------------------|
G#|2--2--2--------2--2--2----2----2--2--2---------2-2---2-2-2--2-2-2--2-2-2--2|
C#|2--2--2--------2--2--2---------2--2--2---------2-2---2-2-2--2-2-2--2-2-2--2|
                                                  X X   X X X  X X X  X X X  X

Die -
D#|---------------------------------------------------------------------------|
A#|---------------------------------------------------------------------------|
F#|---------------------------------------------------------------------------|
C#|---------------------------------------------------------------------------|
G#|2--2--2--------2--2--2---------2--2--2---------2-2---2-2-2--2-2-2--2-2-2--2|
C#|2--2--2--------2--2--2---------2--2--2---------2-2---2-2-2--2-2-2--2-2-2--2|
                                                  X X   X X X  X X X  X X X  X

Kaoru + Die - Breakdown
D#|--------------------------------------------------------------------------------------------------------------------------|
A#|--------------------------------------------------------------------------------------------------------------------------|
F#|--------------------------------------------------------------------------------------------------------------------------|
C#|--------------------------------------------------------------------------------------------------------------------------| x2
G#|2-2--2-2-2--2-2-2--2-2-2--2-5-0--2-2--2-2-2--2-2-2--2-2-2--2-5-0--2-2--2-2-2--2-2-2--2-2-2--2-5-0--2-2--5-0--2-2--5-0--2-0|
C#|2-2--2-2-2--2-2-2--2-2-2--2-5-0--2-2--2-2-2--2-2-2--2-2-2--2-5-0--2-2--2-2-2--2-2-2--2-2-2--2-5-0--2-2--5-0--2-2--5-0--2-0|
   X X  X X X  X X X  X X X  X X X  X X  X X X  X X X  X X X  X X X  X X  X X X  X X X  X X X  X X X  X X  X X  X X  X X  X X

Kaoru - Repeat Before Chorus RIFF
Die   - Repeat Before Chorus RIFF

Kaoru - Repeat Chorus RIFF x4
Die   - Repeat Chorus RIFF x4

Kaoru + Die - Repeat Ending RIFF


credit to 
LiveJournal: Knife_prty
Добавлено: 11.05.2012
Другие материалы по этой песне:

Страница создана 11.05.2012
http://primanota.ru/dir-en-grey/c-chords.htm
Привет, Гость.
Предлагаем пройти революционный курс по гитаре.
Подарок от PrimaNota.Ru, забирай!