PrimaNota.ru - самый крупный в мире бесплатный архив песенных текстов, аккордов, табулатур и нот


Dir En Grey - Berry - текст песни, бас-таба, видео

Регистрация Запомнить меня
Войти через:  Facebook Google Twitter Vk Yandex Mail.ru

Dir En Grey - Berry - текст песни, бас-таба, видео

Печатать
Просмотров: 142
Авторы музыки: 薫
Авторы текста: 京
INTRO 1(x2)
Come in 19 seconds in.
|------------------------------------------------------------------|
|----------3-3-----------------------------3-3-2-2-----3-3-5-5-6-6-|
|--5-5---------3-3-5-5-----3-3-4-4-5-5-------------5-5-------------|
|------5-5-------------5-5-------------5-5-------------------------|

|---------------------------------------------------------------------|
|----------3-3-----------------------------3-3-2-2-----7-6\--------12-|
|--5-5---------3-3-5-5-----3-3-4-4-5-5-------------5-5----12--12------|
|------5-5-------------5-5-------------5-5----------------------------|

VERSE 1

|------------------------------------------------------------------|
|----------3-3-----------------------------3-3-------------3-3-2-2-|
|--5-5---------3-3-5-5-----3-3-4-4-5-5---------3-3-5-5-------------|
|------5-5-------------5-5-------------5-5-------------5-5---------|

|--------------------------------------------------------------|
|----------3-3-----------------------------3-3-----------------|
|--5-5---------3-3-5-5-----3-3-4-4-5-5---------3-3-5-5-5-5-5-4-|
|------5-5-------------5-5-------------5-5---------------------|

INTRO 2

|------------------------------------------------------------------|
|----------3-3-----------------------------3-3-2-2-----3-3-5-5-6-6-|
|--5-5---------3-3-5-5-----3-3-4-4-5-5-------------5-5-------------|
|------5-5-------------5-5-------------5-5-------------------------|

|---------------------------------------------------------------------|
|----------3-3-----------------------------3-3-2-2-----7-6\--------12-|
|--5-5---------3-3-5-5-----3-3-4-4-5-5-------------5-5----12--12------|
|------5-5-------------5-5-------------5-5----------------------------|

VERSE 2

|------------------------------------------------------------------|
|----------3-3-----------------------------3-3-------------3-3-2-2-|
|--5-5---------3-3-5-5-----3-3-4-4-5-5---------3-3-5-5-------------|
|------5-5-------------5-5-------------5-5-------------5-5---------|

|--------------------------------------------------------------|
|----------3-3-----------------------------3-3-2-2-------------|
|--5-5---------3-3-5-5-----3-3-4-4-5-5-------------5---------3-|
|------5-5-------------5-5-------------5-5-----------3-2-2-3---|

|------------------------------------------------------------------|
|----------3-3-----------------------------3-3-------------3-3-2-2-|
|--5-5---------3-3-5-5-----3-3-4-4-5-5---------3-3-5-5-------------|
|------5-5-------------5-5-------------5-5-------------5-5---------|

|--------------------------------------------------------------------|
|----------3-3-----------------------------3-3---------7----------12-|
|--5-5---------3-3-5-5-----3-3-4-4-5-5---------3-3-5-5---6\12--12----|
|------5-5-------------5-5-------------5-5---------------------------|

PRE-CHORUS 1

|------------------------------------------------------------------|
|----------3-3-----------------------------3-3-2-2-----3-3-5-5-6-6-|
|--5-5---------3-3-5-5-----3-3-4-4-5-5-------------5-5-------------|
|------5-5-------------5-5-------------5-5-------------------------|

|------------------------------------------------------------------|
|------------------------------------------------------------------|
|--5-5-5-5-5-5-5-5-6-6-6-6-----------------------------------------|
|--------------------------0-0-0-0-2-2-2-2-3-3-3-3-4-4-4-4-5-5-5-5-|

CHORUS 1

|------------------------------------------------------------------|
|------------------------------------------------------------------|
|--5-5-5-5-5-5-5-5-5-5-5-5-5-5-5-4---------------------------------|
|----------------------------------2-2-2-2-2-2-2-2-2-2-2-2-2-2-5-5-|

|------------------------------------------------------------------|
|------------------------------------------------------------------|
|--2-2-2-2-2-2-2-2-2-2-2-2-2-2-2-2-2-2-2-2-4-4-4-4-5-5-5-5-4-4-4-4-|
|------------------------------------------------------------------|

|------------------------------------------------------------------|
|------------------------------------------------------------------|
|--------------------------------------------------------------4-4-|
|--0-0-0-0-0-0-0-0-0-0-0-0-0-0-3-3-5-5-5-5-5-5-5-5-5-5-5-5-5-5-----|

|------------------------------------------------------------------|
|------------------------------------------------------------------|
|--5-5-5-5-5-5-5-5-5-5-5-5-5-5-5-5-5-5-5-5-5-5-----5-5---------4-4-|
|----------------------------------------------5-5-----5-5-3-3-----|

|------------------------------------------------------------------|
|------------------------------------------------------------------|
|--5-5-5-5-5-5-5-5-5-5-5-5-5-5-5-4---------------------------------|
|----------------------------------2-2-2-2-2-2-2-2-2-2-2-2-2-2-5-5-|

|------------------------------------------------------------------|
|----------------------------------------------------------4-4-4-4-|
|--2-2-2-2-2-2-2-2-2-2-2-2-2-2-2-2-2-2-2-2-4-4-4-4-5-5-5-5---------|
|------------------------------------------------------------------|

|------------------------------------------------------------------|
|------------------------------------------------------------------|
|--------------------------------------------------------------4-4-|
|--0-0-0-0-0-0-0-0-0-0-0-0-0-0-3-3-5-5-5-5-5-5-5-5-5-5-5-5-5-5-----|

|------------------------------------------------------------------|
|------------------------------------------------------------------|
|--5-5-5-5-5-5-5-5-5-5-5-5-5-5-5-5-5-5-----5-5-----5-5-----3-3-4-4-|
|--------------------------------------5-5-----5-5-----5-5---------|

|------------------------------------------------------------------|
|----------------------3-3-----------------------------------------|
|--5-5-----5-5-----5-5-----3-3-4-4-5-5-----5-5-----5-5-----3-3-4-4-|
|------5-5-----5-5---------------------5-5-----5-5-----5-5---------|

|--------------------------------------------------------------------|
|----------------------3-3-----------------------------7----------12-|
|--5-5-----5-5-----5-5-----3-3-4-4-5-5-----5-5-----5-5---6\12--12----|
|------5-5-----5-5---------------------5-5-----5-5-------------------|

INTERLUDE - NO BASS

INTRO 3 (x2)
Come back in at 2:28

|------------------------------------------------------------------|
|----------3-3-----------------------------3-3-2-2-----3-3-5-5-6-6-|
|--5-5---------3-3-5-5-----3-3-4-4-5-5-------------5-5-------------|
|------5-5-------------5-5-------------5-5-------------------------|

|---------------------------------------------------------------------|
|----------3-3-----------------------------3-3-2-2-----7-6\--------12-|
|--5-5---------3-3-5-5-----3-3-4-4-5-5-------------5-5----12--12------|
|------5-5-------------5-5-------------5-5----------------------------|

VERSE 3

|------------------------------------------------------------------|
|----------3-3-----------------------------3-3-------------3-3-2-2-|
|--5-5---------3-3-5-5-----3-3-4-4-5-5---------3-3-5-5-------------|
|------5-5-------------5-5-------------5-5-------------5-5---------|

|--------------------------------------------------------------|
|----------3-3-----------------------------3-3-2-2-------------|
|--5-5---------3-3-5-5-----3-3-4-4-5-5-------------5---------3-|
|------5-5-------------5-5-------------5-5-----------3-2-2-3---|

|------------------------------------------------------------------|
|----------3-3-----------------------------3-3-------------3-3-2-2-|
|--5-5---------3-3-5-5-----3-3-4-4-5-5---------3-3-5-5-------------|
|------5-5-------------5-5-------------5-5-------------5-5---------|

|--------------------------------------------------------------------|
|----------3-3-----------------------------3-3---------7----------12-|
|--5-5---------3-3-5-5-----3-3-4-4-5-5---------3-3-5-5---6\12--12----|
|------5-5-------------5-5-------------5-5---------------------------|

PRE-CHORUS 2

|------------------------------------------------------------------|
|----------3-3-----------------------------3-3-2-2-----3-3-5-5-6-6-|
|--5-5---------3-3-5-5-----3-3-4-4-5-5-------------5-5-------------|
|------5-5-------------5-5-------------5-5-------------------------|

|------------------------------------------------------------------|
|------------------------------------------------------------------|
|--5-5-5-5-5-5-5-5-6-6-6-6-----------------------------------------|
|--------------------------0-0-0-0-2-2-2-2-3-3-3-3-4-4-4-4-5-5-5-5-|

CHORUS 2

|------------------------------------------------------------------|
|------------------------------------------------------------------|
|--5-5-5-5-5-5-5-5-5-5-5-5-5-5-5-4---------------------------------|
|----------------------------------2-2-2-2-2-2-2-2-2-2-2-2-2-2-5-5-|

|------------------------------------------------------------------|
|------------------------------------------------------------------|
|--2-2-2-2-2-2-2-2-2-2-2-2-2-2-2-2-2-2-2-2-4-4-4-4-5-5-5-5-4-4-4-4-|
|------------------------------------------------------------------|

|------------------------------------------------------------------|
|------------------------------------------------------------------|
|--------------------------------------------------------------4-4-|
|--0-0-0-0-0-0-0-0-0-0-0-0-0-0-3-3-5-5-5-5-5-5-5-5-5-5-5-5-5-5-----|

|------------------------------------------------------------------|
|------------------------------------------------------------------|
|--5-5-5-5-5-5-5-5-5-5-5-5-5-5-5-5---------------------2-2-4-4-----|
|----------------------------------5-5-5-5-5-5-5-5-5-5---------5-5-|

|------------------------------------------------------------------|
|------------------------------------------------------------------|
|--5-5-5-5-5-5-5-5-5-5-5-5-5-5-5-4---------------------------------|
|----------------------------------2-2-2-2-2-2-2-2-2-2-2-2-2-2-5-5-|

|------------------------------------------------------------------|
|------------------------------------------------------------------|
|--2-2-2-2-2-2-2-2-2-2-2-2-2-2-2-2-2-2-2-2-4-4-4-4-5-5-5-5-4-4-4-4-|
|------------------------------------------------------------------|

|------------------------------------------------------------------|
|------------------------------------------------------------------|
|--------------------------------------------------------------4-4-|
|--0-0-0-0-0-0-0-0-0-0-0-0-0-0-3-3-5-5-5-5-5-5-5-5-5-5-5-5-5-5-----|

|------------------------------------------------------------------|
|------------------------------------------------------------------|
|--5-5-5-5-5-5-5-5-5-5-5-5-5-5-5-5-5-5-5-5-5-5-----5-5---------4-4-|
|----------------------------------------------5-5-----5-5-3-3-----|

|----------------------------------------------------------|
|----------------------------------------------------------|
|--5-5-5-5-5-5-5-5-5-5-5-5-5-5-5-4-------------------------|
|----------------------------------2-2-2-2-2-2-2-2-2-2-5-5-|

|------------------------------------------------------------------|
|----------------------------------------------------------4-4-4-4-|
|--2-2-2-2-2-2-2-2-2-2-2-2-2-2-2-2-2-2-2-2-4-4-4-4-5-5-5-5---------|
|------------------------------------------------------------------|

|------------------------------------------------------------------|
|------------------------------------------------------------------|
|--------------------------------------------------------------4-4-|
|--0-0-0-0-0-0-0-0-0-0-0-0-0-0-3-3-5-5-5-5-5-5-5-5-5-5-5-5-5-5-----|

|------------------------------------------------------------------|
|------------------------------------------------------------------|
|--5-5-5-5-5-5-5-5-5-5-5-5-5-5-5-5-5-5-----5-5-----5-5---------4-4-|
|--------------------------------------5-5-----5-5-----5-5-3-3-----|

|------------------------------------------------------------------|
|----------------------3-3-----------------------------------------|
|--5-5-----5-5-----5-5-----3-3-4-4-5-5-----5-5-----5-5-----3-3-4-4-|
|------5-5-----5-5---------------------5-5-----5-5-----5-5---------|

|------------------------------------------------------------------|
|--------------------------------------3-3-------------------------|
|--5-5-----3-3-4-4-5-5-----5-5-----5-5-----3-3-4-4-5-5-----5-5-----|
|------5-5-------------5-5-----5-5---------------------5-5-----5-5-|

|--------------------|
|------7----------12-|
|--5-5---6\12--12----|
|--------------------|

ENDING/INTRO 4 (x2)

|------------------------------------------------------------------|
|----------3-3-----------------------------3-3-2-2-----3-3-5-5-6-6-|
|--5-5---------3-3-5-5-----3-3-4-4-5-5-------------5-5-------------|
|------5-5-------------5-5-------------5-5-------------------------|

|---------------------------------------------------------------------|
|----------3-3-----------------------------3-3-2-2-----7-6\--------12-|
|--5-5---------3-3-5-5-----3-3-4-4-5-5-------------5-5----12--12------|
|------5-5-------------5-5-------------5-5----------------------------|
Добавлено: 02.04.2012
Другие материалы по этой песне:

Страница создана 09.03.2012
http://primanota.ru/dir-en-grey/berry-chords.htm
Привет, Гость.
Предлагаем пройти революционный курс по гитаре.
Подарок от PrimaNota.Ru, забирай!