PrimaNota.ru - самый крупный в мире бесплатный архив песенных текстов, аккордов, табулатур и нот


Devo - Secret Agent Man - текст песни, таба, видео

Регистрация Запомнить меня
Войти через:  Facebook Google Twitter Vk Yandex Mail.ru

Devo - Secret Agent Man - текст песни, таба, видео

Печатать
Просмотров: 125
Авторы: P.F. Sloan, Steve Barri
Авторы музыки: P.F. Sloan, Steve Barri

Secret Agent Man
Duty Now For The Future
Devo

Intro:
|-----------------|-----------------|------------------|--------------|
|-----------------|-----------------|------------------|---------3----|
|-------------3p2-|-------------3p2-|--------------3p2-|---------2--2-|
|-2-2-3-2-5-2-----|-2-2-3-2-5-2-----|--2-2-3-2-5-2-----|-2-2-3-2-0--2-|
|-----------------|-----------------|------------------|------------0-|
|-----------------|-----------------|------------------|--------------|


Then Play This For The Verses:
|-----------------|
|-----------------|
|-------------3p2-| Repeat as Necessary
|-2-2-3-2-5-2-----|
|-----------------|
|-----------------|

Prechorus:
|----------|----------|----------|----------|------------------|-----|
|----------|----------|----------|----------|------------------|-----|
|--4-------|--4-------|--4-------|--7-------|--------------3p2-|-----|
|--4-------|--4-------|--4-------|--7-------|--2-2-3-2-5-2-----|-2---|
|--2-------|--2-------|--2-------|--5-------|------------------|-----|
|----------|----------|----------|----------|------------------|-----|
  let ring---------------------->  staccato

Chorus:
|----|----|----|----|----|----|-------|-----------------|-------------|
|----|----|----|----|----|----|-------|-----------------|---------3---|
|-7--|----|-4--|-9--|----|----|-7-----|-------------3p2-|---------2-2-|
|-7--|-7--|-4--|-9--|-7--|-9--|-7--7--|-2-2-3-2-5-2-----|-2-2-3-2-0-2-|
|-5--|-7--|-2--|-7--|-7--|-9--|-5--7--|-----------------|-----------0-|
|----|-5--|----|----|-5--|-7--|----5--|-----------------|-------------|

Then Repeat.
Ends on E5

     
Добавлено: 01.10.2013
Другие материалы по этой песне:
  • Аккорды и текст

Страница создана 30.05.2012
http://primanota.ru/devo/secret-agent-man-chords.htm
Привет, Гость.
Предлагаем пройти революционный курс по гитаре.
Подарок от PrimaNota.Ru, забирай!