PrimaNota.ru - самый крупный в мире бесплатный архив песенных текстов, аккордов, табулатур и нот


Devo - S I B - таба, видео

Регистрация Запомнить меня
Войти через:  Facebook Google Twitter Vk Yandex Mail.ru

Devo - S I B - таба, видео

Печатать
Просмотров: 112
Уроки эстрадного вокала в Санкт-Петербурге
Авторы музыки: Mark Mothersbaugh

S.I.B (Swelling Itching Brain)
Devo
Duty Now For The Future

Keyboard Parts:

Intro: Play This 3 Times:

|-----------------------------------------------------------------|
|-----------------------------------------------------------------|
|-----------------------------------------------------------------|
|-----5-5-----5-5-----5-5-----5-5-----5-5-----5-5-----5-5-----5-5-|
|-----------------------------------------------------------------|
|-3-3-----3-3-----3-3-----3-3-----3-3-----3-3-----3-3-----3-3-----|

Then Play This The Rest of the Song:

|-----------------------------------------------------------------|
|-----------------------------------------------------------------|
|-----------------------------------------------------------------|
|-----5-5-----5-5-----4-4-----4-4-----3-3-----3-3-----2-2-----2-2-|
|-----------------------------------------------------------------|
|-3-3-----3-3-----2-2-----2-2-----1-1-----1-1-----0-0-----0-0-----|

|-----------------------------------------------------------------|
|-----------------------------------------------------------------|
|-----------------------------------------------------------------|
|-----5-5-----5-5-----6-6-----6-6-----7-7-----7-7-----8-8-----8-8-|
|-----------------------------------------------------------------|
|-3-3-----3-3-----4-4-----4-4-----5-5-----5-5-----6-6-----6-6-----|

Played Through Some of The Verses:

|----------------------------------------------------------------|
|----------------------------------------------------------------|
|-11--10--11--10--12--11--12--11--11--10--11--10--12--11--12--11-|
|----------------------------------------------------------------|
|----------------------------------------------------------------|
|----------------------------------------------------------------|

Guitar Part:

Play After Some Verses:

|---------------------------------------------------------|
|---------------------------------------------------------|
|---------------------------------------------------------|
|-5-5-5-5-5-----4-4-4-4-4-----3-3-3-3-3-----2-2-2-2-2-----|
|-5-5-5-5-5-----4-4-4-4-4-----3-3-3-3-3-----2-2-2-2-2-----|
|-3-3-3-3-3-----2-2-2-2-2-----1-1-1-1-1-----0-0-0-0-0-----|

|---------------------------------------------------------|
|---------------------------------------------------------|
|---------------------------------------------------------|
|-5-5-5-5-5-----6-6-6-6-6-----7-7-7-7-7-----8-8-8-8-8-----|
|-5-5-5-5-5-----6-6-6-6-6-----7-7-7-7-7-----8-8-8-8-8-----|
|-3-3-3-3-3-----4-4-4-4-4-----5-5-5-5-5-----6-6-6-6-6-----|

     
Добавлено: 06.10.2013
Другие материалы по этой песне:
  • Аккорды и текст

Страница создана 06.10.2013
http://primanota.ru/devo/s-i-b-chords.htm
Привет, Гость.
Предлагаем пройти революционный курс по гитаре.
Подарок от PrimaNota.Ru, забирай!