PrimaNota.ru - самый крупный в мире бесплатный архив песенных текстов, аккордов, табулатур и нот


Devo - That's Good - текст песни, таба, видео

Регистрация Запомнить меня
Войти через:  Facebook Google Twitter Vk Yandex Mail.ru

Devo - That's Good - текст песни, таба, видео

Печатать
Просмотров: 102
Уроки эстрадного вокала в Санкт-Петербурге
Авторы музыки: Gerald Casale, Bob Mothersbaugh

"That's Good" by Devo
tabbed by Jeremiah Blanch

Another brilliant song by the art-punk geniuses!
These are the basic chords and riffs.


Bass line (plays through the whole song)

E|----------------------
B|----------------------
G|----------------------
D|----------------------
A|----------------------
E|--0-12-12-12-12-0-0-0-

Main guitar lick

E|--------------          -------------------- 
B|--------------          -------------------- 
G|----9--------           ----9-----7-6-----
D|--------------          --------------9-- 
A|--7-------7-7--  x 3    --7-----7-----------  x 1       
E|--------------          -------------------- 


Verse

E               A
"Everybody      wants a good thing"
 
 (repeat)  


Chorus
E                D                          C#                              B                     
"Ain't it true   there's just no doubt     there's some things that you can do with out and that's

   E
.. good"   (main guitar lick)


Bridge
B
"Everybody's just like you it's true. Everybody wants a good thing too"


That's it!
Keep De-volving!
Добавлено: 17.06.2016
Другие материалы по этой песне:
  • Аккорды и текст

Страница создана 28.03.2012
http://primanota.ru/devo/thats-good-chords.htm
Привет, Гость.
Предлагаем пройти революционный курс по гитаре.
Подарок от PrimaNota.Ru, забирай!