PrimaNota.ru - самый крупный в мире бесплатный архив песенных текстов, аккордов, табулатур и нот


Devo - Turn Around - текст песни, таба, видео

Регистрация Запомнить меня
Войти через:  Facebook Google Twitter Vk Yandex Mail.ru

Devo - Turn Around - текст песни, таба, видео

Печатать
Просмотров: 122
Авторы: Gerald Casale, Mark Mothersbaugh

Devo: band
"Turn Around": song
Freedom of Choice: album

Verses:

Note: all lower notes are synth/bass parts, the notes on the top two frets 
are guitar parts. It's two tabs in one.

|---------------------12-12-12-12-12-12--|
|---------------------12-12-12-12-12-12--|
|----------------------------------------|
|----------------------------------------|
|--------7-------7-----------------------|
|--0-0-0---0---0---0---------------------|  


|---------------------12-12-12-12-12-12--|
|---------------------12-12-12-12-12-12--|
|----------------------------------------|
|----------------------------------------|
|--------7-------7-----------------------|
|--0-0-0---0-0-0---0---------------------| 

Repeat these two bars twice for the verses.

Then:

|--10-10--8-8--5---------------|-10-10--8-8--3---------------|
|--10-10--8-8--5---------------|-10-10--8-8--3---------------|
|------------------------------|-----------------------------|
|------------------7-7-7---7-7-|-----------------5-5-5---5-5-|
|------------------------------|-----------------------------|
|--10-10--8-8--5---------5-----|-10-10--8-8--3---------3-----|
 
|--1-1--3-3--5--------------|-1-1--3-3--10--------------------|
|--1-1--3-3--5--------------|-1-1--3-3--10--------------------|
|---------------------------|---------------------------------|
|---------------7-7-7---7-7-|---------------12-12-12----12-12-|
|---------------------------|---------------------------------|
|--1-1--3-3--5--------5-----|-1-1--3-3--10-----------10-------|

|--1-1--3-3--8\-----|
|--1-1--3-3--8\-----|
|-------------------|
|-------------------|
|-------------------|
|--1-1--3-3--8\-----|

Repeat all of this but for the bridge play this instead:
 
|------------------------------------------|
|------------------------------------------|
|------------------------------------------| Repeat Twice
|------------------------------------------|
|--------7---------7-----------------------|
|--0-0-0---0-(0)-0---0---------------------|  

Then:
|-----------------------12-12-12-12-12-12--|
|-----------------------12-12-12-12-12-12--|
|------------------------------------------| Repeat 6 times
|------------------------------------------|
|--------7---------7-----------------------|
|--0-0-0---0-(0)-0---0---------------------|  


|--10-10--8-8----------------|-10-10--8-8----------------|
|--10-10--8-8----------------|-10-10--8-8----------------|
|----------------------------|---------------------------|
|--------------7-7-7-5h7-7-7-|-------------5-5-5-3h5-5-5-|
|----------------------------|---------------------------|
|--10-10--8-8----------------|-10-10--8-8----------------|
 
|-1-1--3-3----------------|--1-1--3-3-----------------------|
|-1-1--3-3----------------|--1-1--3-3-----------------------|
|-------------------------|---------------------------------|
|-----------7-7-7-5h7-7-7-|------------12-12-12-10h12-12-12-|
|-------------------------|---------------------------------|
|-1-1--3-3----------------|--1-1--3-3-----------------------|

|-1-1--3-3--8\---------|
|-1-1--3-3--8\---------|
|----------------------|
|----------------------|
|----------------------|
|-1-1--3-3--8\---------|

Repeat Verse Parts again and end on the beginning part.

     
Добавлено: 16.06.2013
Другие материалы по этой песне:
  • Аккорды и текст

Страница создана 16.06.2013
http://primanota.ru/devo/turn-around-chords.htm
Привет, Гость.
Предлагаем пройти революционный курс по гитаре.
Подарок от PrimaNota.Ru, забирай!