PrimaNota.ru - самый крупный в мире бесплатный архив песенных текстов, аккордов, табулатур и нот


Devo - It's Not Right - текст песни, таба, видео

Регистрация Запомнить меня
Войти через:  Facebook Google Twitter Vk Yandex Mail.ru

Devo - It's Not Right - текст песни, таба, видео

Печатать
Просмотров: 153
Авторы музыки: Mark Mothersbaugh
Авторы текста: Mark Mothersbaugh
Band: Devo
Song: It's Not Right
Album: Freedom of Choice

Verse:

4/4                                    3/4

|-5-5-----5-5-----5-5-------------|-5-5-----5-5------------|
|-5-5-----5-5-----5-5-------------|-5-5-----5-5------------|
|---------------------------------|------------------------|
|---------------------------------|------------------------|
|-------------------------5-5-5-4-|----------------5-5-5-4-|
|-4-5-5-4-5-5-4-5-5-5-4-5---------|-4-5-5-4-5-5-4-5--------|  

3/4                            3/4

|--1212----1212------------|-1212----1212------------|
|--1212----1212------------|-1212----1212------------|
|--------------------------|-------------------------|
|------------------7-7-7-6-|-----------------7-7-7-6-|
|--6-7-7-6-7-7-6-7---------|-6-7-7-6-7-7-6-7---------|
|--------------------------|-------------------------|

4/4                                     3/4

|-5-5-----5-5-----5-5-------------|-5-5-----5-5-------------||    
|-5-5-----5-5-----5-5-------------|-5-5-----5-5-------------||    
|---------------------------------|-------------------------||    
|---------------------------------|-------------------------||    
|-------------------------5-5-5-4-|-----------------5-5-5-4-||
|-4-5-5-4-5-5-4-5-5-5-4-5---------|-4-5-5-4-5-5-4-5---------||     


Chorus: 4/4 time

-1313----1313----8-8-----8-8-----3-3-----3-3-----1010----1010---- 
-1313----1313----8-8-----8-8-----3-3-----3-3-----1010----1010---- 
----------------------------------------------------------------- 
-----------------------------------------------------------------
-7-8-8-7-8-8-7-8---------------------------------4-5-5-4-5-5-4-5- 
-----------------7-8-8-7-8-8-7-8-2-3-3-2-3-3-2-3-----------------

--1313----1313----8-8-----8-8-----3-3-----3-3-----||
--1313----1313----8-8-----8-8-----3-3-----3-3-----||
--------------------------------------------------||
--------------------------------------------------||
--7-8-8-7-8-8-7-8---------------------------------||
------------------7-8-8-7-8-8-7-8-2-3-3-2-3-3-2-3-||


The bottom notes are the bass. The higher notes can be played by guitar in a 
staccato fashion. Very simple.

     
Добавлено: 15.09.2013
Другие материалы по этой песне:
  • Аккорды и текст

Страница создана 28.07.2012
http://primanota.ru/devo/its-not-right-chords.htm
Привет, Гость.
Предлагаем пройти революционный курс по гитаре.
Подарок от PrimaNota.Ru, забирай!