PrimaNota.ru - самый крупный в мире бесплатный архив песенных текстов, аккордов, табулатур и нот


Devin Townsend - Ih-ah - аккорды и текст, таба, видео

Регистрация Запомнить меня
Войти через:  Facebook Google Twitter Vk Yandex Mail.ru

Devin Townsend - Ih-ah - аккорды и текст, таба, видео

Печатать
Просмотров: 323
Уроки эстрадного вокала в Санкт-Петербурге
Авторы музыки: Devin Townsend

Ih-ah
Devin Townsend
-----------------------------------------------------------------
Ih-Ah! - Devin Townsend
-----------------------------------------------------------------
Tabbed by: DgorillazguyH
Email: alomstashuvit@yahoo.com
Tuning: EADGBE

Intro:                 
E|------0-------0---------0---------0---------0---------0--------|
B|----1---1---1---1----------------------------------------------|
G|--2-------2----------2-----2---2-----2---0-----0---0-----0-----|
D|-------------------3---------3---------2---------2-------------|
A|---------------------------------------------------------------|
E|---------------------------------------------------------------|

E|---------------------------------------------------------------|
B|------3-------3------------------------------------------------|
G|----5---5---5---5----------------------------------------------|
D|--5-------5----------------------------------------------------|
A|---------------------------------------------------------------|
E|---------------------------------------------------------------|

E|------0-------0---------0---------0---------0---------0--------|
B|----1---1---1---1----------------------------------------------|
G|--2-------2----------2-----2---2-----2---0-----0---0-----0-----|
D|-------------------3---------3---------2---------2-------------|
A|---------------------------------------------------------------|
E|---------------------------------------------------------------|

E|---------------------------------------------------------------|
B|------3-------3------------------------------------------------|
G|----5---5---5---5~---------------------------------------------|
D|--5-------5----------------------------------------------------|
A|---------------------------------------------------------------|
E|---------------------------------------------------------------|

Am       F        C       G
As everything in life, comes together now
Am  F     C    G
I need your mind
Am        F         C     G   G#dim
And everything is light, I remember now
Am  F        C   G
I see you rise.       
Am     F               C     G
And all the lonely things, seem to want to change
Am    F          C     G
I'll sleep on it tonight.

(Am F C G)
Ah-Ih, Ah-Ih
Ah-Ih, Ah-Ih
Ah-Ih, Ah-Ih
Ah-Ih, Ah-Ih
Ah-

Am        F         C    
We don't even understand
 G
Something's going on
Am        F         C
We don't even understand
 G                  G#dim  
So how could this be wrong

(Am F C G)
Ah-Ih, Ah-Ih
Ah-Ih, Ah-Ih
Ah-Ih, Ah-Ih
Ah-Ih, Ah-

F                     C  C/B
I'm so in love with you
 D B  C
...how could I?
F              C  C/B
Ever be untrue.
 D B  C
Am I with you?
F                 Am
With everything I do.
God I love you.
I love you...

Am        F         C
We don't even understand
 G
Something's going on
Am        F         C
We don't even understand
 G
So how could we be wrong 
Am        F        C
We don't know or care
 G
Somethings always there
Am          F          C
We see it's in own our hands,
 G
But we just don't understand. 

Outro:                 
E|------0-------0---------0---------0---------0---------0--------|
B|----1---1---1---1----------------------------------------------|
G|--2-------2----------2-----2---2-----2---0-----0---0-----0-----|
D|-------------------3---------3---------2---------2-------------|
A|---------------------------------------------------------------|
E|---------------------------------------------------------------|

E|---------------------------------------------------------------|
B|------3-------3------------------------------------------------|
G|----5---5---5---5----------------------------------------------|
D|--5-------5----------------------------------------------------|
A|---------------------------------------------------------------|
E|---------------------------------------------------------------|

E|------0-------0---------0---------0---------0---------0--------|
B|----1---1---1---1----------------------------------------------|
G|--2-------2----------2-----2---2-----2---0-----0---0-----0-----|
D|-------------------3---------3---------2---------2-------------|
A|---------------------------------------------------------------|
E|---------------------------------------------------------------|

E|---------------------------------------------------------------|
B|------3-------3------------------------------------------------|
G|----5---5---5---5~---------------------------------------------|
D|--5-------5----------------------------------------------------|
A|---------------------------------------------------------------|
E|---------------------------------------------------------------|

END

 

Добавлено: 16.11.2013
Другие материалы по этой песне:
  • Аккорды и текст

Страница создана 29.06.2013
http://primanota.ru/devin-townsend/ih-ah-chords.htm
Привет, Гость.
Предлагаем пройти революционный курс по гитаре.
Подарок от PrimaNota.Ru, забирай!