PrimaNota.ru - самый крупный в мире бесплатный архив песенных текстов, аккордов, табулатур и нот


Devin Townsend - Colour Your World - таба, видео

Регистрация Запомнить меня
Войти через:  Facebook Google Twitter Vk Yandex Mail.ru

Devin Townsend - Colour Your World - таба, видео

Печатать
Просмотров: 112
-------------------------------------------------------------------------------
			     COLOUR YOUR WORLD - Devin Townsend
-------------------------------------------------------------------------------
Tabbed by: Ricardo Cricco
Email: rcricco@gmail.com

Tuning: CGCGCE

Arpeggio in the middle of the song, when it slows down.. smooth and emotional.. 
colourful tune from mastermind Devin!

e|---------------------------------------------------------------------------|
C|---------------------------------------------------------------------------|
G|----------5-8-8-5-----------------5-8-8-5----------------------------------|
C|--------8---------8-------------8---------8--------------------------------|
G|----5-8-------------8-5-----5-8-------------8-5----------------------------|
C|--8---------------------8-8---------------------8--------------------------|

e|---------------------------------------------------------------------------|
C|---------------------------------------------------------------------------|
G|------------3-3---------------------5-5------------------------------------|
C|--------1-5-----5-1-------------1-5-----5-1--------------------------------|
G|------1-------------1---------1-------------1------------------------------|
C|--1-5-----------------5-1-1-5-----------------5-1--------------------------|

e|---------------------------------------------------------------------------|
C|---------------------------------------------------------------------------|
G|----------5-8-8-5-----------------5-8-8-5----------------------------------|
C|--------8---------8-------------8---------8--------------------------------|
G|----5-8-------------8-5-----5-8-------------8-5----------------------------|
C|--8---------------------8-8---------------------8--------------------------|

e|---------------------------------------------------------------------------|
C|---------------------------------------------------------------------------|
G|------------3-3---------------------5-5------------------------------------|
C|--------1-5-----5-1-------------1-5-----5-1--------------------------------|
G|------1-------------1---------1-------------1------------------------------|
C|--1-5-----------------5-1-1-5-----------------5-1--------------------------|

e|---------------------------------------------------------------------------|
G|---------------------------------------------------------------------------|
G|------------6-6---------------------6-6------------------------------------|
C|--------4-8-----8-4-------------4-8-----8-4--------------------------------|
G|------6-------------6---------6-------------6------------------------------|
C|--4-8-----------------8-4-4-8-----------------8-4--------------------------|

e|---------------------------------------------------------------------------|
C|---------------------------------------------------------------------------|
G|------------6-6---------------------6-6------------------------------------|
C|--------3-7-----7-3-------------3-7-----7-3--------------------------------|
G|------3-------------3---------3-------------3------------------------------|
C|--3-7-----------------7-3-3-7-----------------7-3--------------------------|

e|---------------------------------------------------------------------------|
C|------------------------------------------------8--------------------------|
G|------------6-6---------------------6-------6-9----------------------------|
C|--------4-8-----8-4-------------4-8-----4-8--------------------------------|
G|------6-------------6---------6-------6------------------------------------|
C|--4-8-----------------8-4-4-8----------------------------------------------|

e|---------------------------------------------------------------------------|
C|--------------------------------------7------------------------------------|
G|------------6-6---------------------6--------------------------------------|
C|--------3-7-----7-3-------------3-7----------------------------------------|
G|------3-------------3---------3--------------------------------------------|
C|--3-7-----------------7-3-3-7----------------------------------------------|


| /  slide up
| \  slide down
| h  hammer-on
| p  pull-off
| ~  vibrato
| +  harmonic
| x  Mute note
===============================================================================
Добавлено: 21.11.2013
Другие материалы по этой песне:
  • Аккорды и текст

Страница создана 21.11.2013
http://primanota.ru/devin-townsend/colour-your-world-chords.htm
Привет, Гость.
Предлагаем пройти революционный курс по гитаре.
Подарок от PrimaNota.Ru, забирай!