PrimaNota.ru - самый крупный в мире бесплатный архив песенных текстов, аккордов, табулатур и нот


Demons And Wizards - Terror Train - таба, бас-таба, видео

Регистрация Запомнить меня
Войти через:  Facebook Google Twitter Vk Yandex Mail.ru

Demons And Wizards - Terror Train - таба, бас-таба, видео

Печатать
Просмотров: 146
As recorded by Demons & Wizards
(From the 2005 Album TOUCHED BY THE CRIMSON KING)

Transcribed by Russ Elton (webmaster@abysslord.com)
        

Words and Music by Jon Schaffer/Hansi Kürsch
Arranged by Russ Elton (webmaster@abysslord.com)

Gtr I (Eb Ab Db Gb Bb Eb) - 'Distortion Guitar'
Gtr II (Eb Ab Db Gb Bb Eb) - 'Distortion Guitar'
Gtr III (Eb Ab Db Gb Bb Eb) - 'Distortion Guitar'
Gtr IV (Eb Ab Db Gb Bb Eb) - 'Distortion Guitar'

   Intro/Verse
    Q=176
    $
    N.C.(E5)                      N.C.
   4/4
    Gtrs I, II
    PM----|   PM----|   PM----|     PM----|   PM|
    S S S S E S S S S E S S S S   E S S S S E S S E E E
||------------------------------|-----------------------|
||o-----------------------------|-----------------------|
||------------------------------|-----------------------|
||------------------------------|-3---------0-----3-3-2-|
||o---------2---------2---------|-3-0-0-0-0-0-0-0-3-3-2-|
||--0-0-0-0-0-0-0-0-0-0-0-0-0-0-|-----------------------|


          Bb5                 N.C.(F5)F5/N.C.(G5)G5/D
  PM----|   PM----|   PM|     PM----|    PM----|
  S S S S E S S S S E S S E   S S S S Q  S S S S Q   4x
|---------------------------|------------------------||
|---------------------------|-----------------------o||
|---------------------------|------------------------||
|---------3---------3-----3-|---------3----------5---||
|-1-1-1-1-1-1-1-1-1-1-1-1-1-|---------3----------5--o||
|---------------------------|-1-1-1-1----3-3-3-3-----||


   Bridge
    N.C.
    Gtr II
     S  S  S  S  S  S  S  S  S  S  S  S  S  S  S  S
||--------------------------------------------------|
||o-------------------------------------------------|
||--------------16-16-16-16-------------17-17-17-17-|
||--14-14-14-14-------------14-14-14-14-------------|
||o-------------------------------------------------|
||--------------------------------------------------|
|
|   Gtr I
|    PM----------------------------------------------
|    S  S  S  S  S  S  S  S  S  S  S  S  S  S  S  S
||--------------------------------------------------|
||o-------------------------------------------------|
||--------------------------------------------------|
||--------------------------------------------------|
||o--------------2--2--2--2--------------3--3--3--3-|
||---0--0--0--0--------------0--0--0--0-------------|


   S  S  S  S  S  S  S  S  S  S  S  S  S  S  S  S
|--------------------------------------------------|
|--------------------------------------------------|
|-------------16-16-16-16-------------17-17-17-17--|
|-14-14-14-14-------------14-14-14-14--------------|
|--------------------------------------------------|
|--------------------------------------------------|
|
|----------------------------------------------|
|  S  S  S  S  S  S  S  S  S  S  S  S  S  S  S  S
|--------------------------------------------------|
|--------------------------------------------------|
|--------------------------------------------------|
|--------------------------------------------------|
|--------------2--2--2--2--------------3--3--3--3--|
|--0--0--0--0--------------0--0--0--0--------------|


   S  S  S  S  S  S  S  S  S  S  S  S  S  S  S  S
|-------------------------------------------------|
|-------------------------------------------------|
|-------------17-17-17-17-------------18-18-18-18-|
|-15-15-15-15-------------15-15-15-15-------------|
|-------------------------------------------------|
|-------------------------------------------------|
|
|  PM----------------------------------------------
|  S  S  S  S  S  S  S  S  S  S  S  S  S  S  S  S
|-------------------------------------------------|
|-------------------------------------------------|
|-------------------------------------------------|
|-------------------------------------------------|
|--------------3--3--3--3--------------4--4--4--4-|
|--1--1--1--1--------------1--1--1--1-------------|


                                           D.C.
   S  S  S  S  S  S  S  S  S  S  S  S  S  S  S  S
|--------------------------------------------------||
|-------------------------------------------------o||
|-------------17-17-17-17-------------18-18-18-18--||
|-15-15-15-15-------------15-15-15-15--------------||
|-------------------------------------------------o||
|--------------------------------------------------||
|
|----------------------------------------------|
|  S  S  S  S  S  S  S  S  S  S  S  S  S  S  S  S
|--------------------------------------------------||
|-------------------------------------------------o||
|--------------------------------------------------||
|--------------------------------------------------||
|--------------3--3--3--3--------------4--4--4--4-o||
|--1--1--1--1--------------1--1--1--1--------------||


   Verse
    N.C.
    Gtrs I, II
    PM-----------------------------------
    S S S S S S S S S S S S  S  S  S  S
||--------------------------------------|
||o-------------------------------------|
||--------------------------------------|
||----------9-9-9-9-7-7-7-7-------------|
||o-7-7-7-7-----------------10-10-10-10-|
||--------------------------------------|


 ---------------------------------------|
   S  S  S  S S S S S  S  S  S  S S S S S
|------------------------------------------|
|------------------------------------------|
|------------------------------------------|
|-10-10-10-10-9-9-9-9-------------7-7-7-7--|
|---------------------10-10-10-10----------|
|------------------------------------------|


                                                        Eb5/Bb
  PM--------------------------------------------------|
  S S S S S S S S S S S S  S  S  S  S   S S S S S S S S Q  Q
|-------------------------------------|------------------------||
|-------------------------------------|-----------------------o||
|-------------------------------------|-----------------8--8---||
|---------9-9-9-9-7-7-7-7-------------|-----------------8--8---||
|-7-7-7-7-----------------10-10-10-10-|-5-5-5-5-5-5-5-5-------o||
|-------------------------------------|------------------------||


 Bridge
  N.C.(E5)
  PM-------------------------------
  S S S S S S S S S S S S S S S S
|---------------------------------|
|---------------------------------|
|---------------------------------|
|---------------------------------|
|-7-7-7-7-7-7-7-7-7-7-7-7-7-7-7-7-|
|---------------------------------|


  N.C.(G5)
 ----------------------------------------------|
   S  S  S  S  S  S  S  S  S  S  S  S  S  S  S  S
|-------------------------------------------------|
|-------------------------------------------------|
|-------------------------------------------------|
|-------------------------------------------------|
|-10-10-10-10-10-10-10-10-10-10-10-10-10-10-10-10-|
|-------------------------------------------------|


  N.C.(F#5)                         N.C.(D5)
  PM--------------------------------------------------------------|
  S S S S S S S S S S S S S S S S   S S S S S S S S S S S S S S S S
|---------------------------------|---------------------------------|
|---------------------------------|---------------------------------|
|---------------------------------|---------------------------------|
|---------------------------------|---------------------------------|
|-9-9-9-9-9-9-9-9-9-9-9-9-9-9-9-9-|-5-5-5-5-5-5-5-5-5-5-5-5-5-5-5-5-|
|---------------------------------|---------------------------------|


  N.C.(E5)
  PM-------------------------------
  S S S S S S S S S S S S S S S S
|---------------------------------|
|---------------------------------|
|---------------------------------|
|---------------------------------|
|-7-7-7-7-7-7-7-7-7-7-7-7-7-7-7-7-|
|---------------------------------|


  N.C.(G5)
 ----------------------------------------------|
   S  S  S  S  S  S  S  S  S  S  S  S  S  S  S  S
|-------------------------------------------------|
|-------------------------------------------------|
|-------------------------------------------------|
|-------------------------------------------------|
|-10-10-10-10-10-10-10-10-10-10-10-10-10-10-10-10-|
|-------------------------------------------------|


  N.C.(A5)
   PM----------------------------------------------
   S  S  S  S  S  S  S  S  S  S  S  S  S  S  S  S
|-------------------------------------------------|
|-------------------------------------------------|
|-------------------------------------------------|
|-------------------------------------------------|
|-12-12-12-12-12-12-12-12-12-12-12-12-12-12-12-12-|
|-------------------------------------------------|


  N.C.(D5)
 -------------------------------|
  S S S S S S S S S S S S S S S S
|---------------------------------||
|---------------------------------||
|---------------------------------||
|---------------------------------||
|-5-5-5-5-5-5-5-5-5-5-5-5-5-5-5-5-||
|---------------------------------||


 Bridge
  N.C.
  PM------------------------------------------------------------------|
  S S S S S S S S  S  S S S S S S S   S S S S S S S S  S  S S S S S S S
|-----------------------------------|-----------------------------------|
|-----------------------------------|-----------------------------------|
|-----------------------------------|-----------------------------------|
|-----------------------------------|-----------------------------------|
|-7-7-7-7-8-8-7-7-10-10-7-7-8-8-7-7-|-7-7-7-7-8-8-7-7-10-10-7-7-8-8-7-7-|
|-----------------------------------|-----------------------------------|


  PM--------------------------------------------------------------|
  S S S S S S S S S S S S S S S S   S S S S S S S S S S S S S S S S
|---------------------------------|---------------------------------|
|---------------------------------|---------------------------------|
|---------------------------------|---------------------------------|
|---------------------------------|---------------------------------|
|-6-6-6-6-7-7-6-6-9-9-6-6-7-7-6-6-|-6-6-6-6-7-7-6-6-9-9-6-6-7-7-6-6-|
|---------------------------------|---------------------------------|


  PM------------------------------------------------------------------|
  S S S S S S S S  S  S S S S S S S   S S S S S S S S  S  S S S S S S S
|-----------------------------------|-----------------------------------|
|-----------------------------------|-----------------------------------|
|-----------------------------------|-----------------------------------|
|-----------------------------------|-----------------------------------|
|-7-7-7-7-7-7-7-7-10-10-7-7-8-8-7-7-|-7-7-7-7-7-7-7-7-10-10-7-7-8-8-7-7-|
|-----------------------------------|-----------------------------------|


                                                                 D.S.
  Gtr II
  PM-----------------------------------------------------------------|
  S S S S S S S S S S S S S S S S   S S S S S S S S   S  S S S S S S S
|---------------------------------|------------------------------------||
|---------------------------------|------------------------------------||
|---------------------------------|------------------------------------||
|---------------------------------|------------------------------------||
|-6-6-6-6-6-6-6-6-9-9-6-6-7-7-6-6-|-6-6-6-6-6-6-6-6---6--6-6-6-6-6-6-6-||
|---------------------------------|------------------------------------||
|
| Gtr I
| PM----------------------------------------------|
| S S S S S S S S S S S S S S S S   S S S S S S S S   H
|---------------------------------|------------------------------------||
|---------------------------------|------------------------------------||
|---------------------------------|------------------------------------||
|---------------------------------|------------------------------------||
|-6-6-6-6-6-6-6-6-9-9-6-6-7-7-6-6-|-6-6-6-6-6-6-6-6-/18\---------------||
|---------------------------------|------------------------------------||


 Interlude
  N.C.(E5)
  Gtr II
  S  S E  E E  H       +H     S  S E  E E
|-------------------|---------------------|
|-------------------|---------------------|
|-9h10p9----9-------|---------9h10p9----9-|
|--------12---12----|-(12)-----------12---|
|-------------------|---------------------|
|-------------------|---------------------|
|
| Gtr I
| W                    +W
|-------------------|---------------------|
|-------------------|---------------------|
|-------------------|---------------------|
|-------------------|---------------------|
|-------------------|---------------------|
|-0-----------------|--(0)----------------|


   E   E Q  +H       +Q   E E   E  E E E
|------------------|---------------------|
|------------------|---------------------|
|------------------|---------------------|
|-12--10-9--(9)----|-(9)--7-9--10--9-7---|
|------------------|---------------------|
|------------------|---------------------|
|
| +W                 +H         H
|------------------|---------------------|
|------------------|---------------------|
|------------------|---------------------|
|------------------|---------------------|
|------------------|---------------------|
|-(0)--------------|-(0)------/17\-------|


  W                   +Q      E E  E E E E
|-------------------|----------------------|
|-------------------|----------------------|
|-------------------|----------------------|
|-9-----------------|-(9)------------------|
|-------------------|---------7-9-10-9-7---|
|-------------------|----------------------|
|
| PM----------------------------------------
| E S S E E E E E E    E  S S E E  E E E E
|-------------------|----------------------|
|-------------------|----------------------|
|-------------------|----------------------|
|-------------------|----------------------|
|-------------------|----------------------|
|-0-0-0-0-0-0-0-0-0-|--0--0-0-0-0--0-0-0-0-|


  W                   +W
|-------------------|---------------------|
|-------------------|---------------------|
|-------------------|---------------------|
|-------------------|---------------------|
|-7-----------------|-(7)-----------------|
|-------------------|---------------------|
|
|---------------------------------------|
| E S S E E E E E E    E  S S E E E E E E
|-------------------|---------------------|
|-------------------|---------------------|
|-------------------|---------------------|
|-------------------|---------------------|
|-------------------|---------------------|
|-0-0-0-0-0-0-0-0-0-|--0--0-0-0-0-0-0-0-0-|


  S  S E    E E  H          +H          S  S E  E E
|------------------------|--------------------------|
|------------------------|--------------------------|
|-9h10p9------9----------|--------------9h10p9----9-|
|----------12---12-------|-(12)----------------12---|
|------------------------|--------------------------|
|------------------------|--------------------------|
|
| PM-------------------------------------------------
| E    S S  E E  E E E E     E  S S E E E    E  E E
|------------------------|--------------------------|
|------------------------|--------------------------|
|------------------------|--------------------------|
|------------------------|--------------------------|
|------------------------|--------------------------|
|-0----0-0--0-0--0-0-0-0-|---0--0-0-0-0-0----0--0-0-|


   E  E   Q   +H          +Q      E E  E E E E
|-----------------------|----------------------|
|-----------------------|----------------------|
|-----------------------|----------------------|
|-12-10---9---(9)-------|-(9)-----7-9-10-9-7---|
|-----------------------|----------------------|
|-----------------------|----------------------|
|
|--------------------------------------------|
|  E  S S E E  E  E E E    E  S S E E  E E E E
|-----------------------|----------------------|
|-----------------------|----------------------|
|-----------------------|----------------------|
|-----------------------|----------------------|
|-----------------------|----------------------|
|--0--0-0-0-0--0--0-0-0-|--0--0-0-0-0--0-0-0-0-|


  W                   +Q      E E  E E E E
|-------------------|----------------------|
|-------------------|----------------------|
|-------------------|----------------------|
|-9-----------------|-(9)------------------|
|-------------------|---------7-9-10-9-7---|
|-------------------|----------------------|
|
| PM----------------------------------------
| E S S E E E E E E    E  S S E E  E E E E
|-------------------|----------------------|
|-------------------|----------------------|
|-------------------|----------------------|
|-------------------|----------------------|
|-------------------|----------------------|
|-0-0-0-0-0-0-0-0-0-|--0--0-0-0-0--0-0-0-0-|


  W                   +W
|-------------------|---------------------|
|-------------------|---------------------|
|-------------------|---------------------|
|-------------------|---------------------|
|-7-----------------|-(7)-----------------|
|-------------------|---------------------|
|
|---------------------------------------|
| E S S E E E E E E    E  S S E E E E E E
|-------------------|---------------------|
|-------------------|---------------------|
|-------------------|---------------------|
|-------------------|---------------------|
|-------------------|---------------------|
|-0-0-0-0-0-0-0-0-0-|--0--0-0-0-0-0-0-0-0-|


  E
  Gtr I
   E     S S  E  E  E E E E     E   S S  E E  E     E  E  E
   |     | |  |  |  | | | |     |   | |  | |  |     |  |  |
   o     / /  /  /  / / / /     /   / /  / /  /     /  /  /

  Gtr III
   S  S  E    E  E  H          +H             S  S  E  E  E
|-12h13p12------------------|----------------12h13p12-------|
|------------15-13-12-------|-(12)--------------------15-13-|
|---------------------------|-------------------------------|
|---------------------------|-------------------------------|
|---------------------------|-------------------------------|
|---------------------------|-------------------------------|
|
| Gtr II
|  S  S  E    E  E  H          +H             S  S  E  E  E
|---------------------------|-------------------------------|
|---------------------------|-------------------------------|
|--9h10p=9-------9----------|-----------------9h10p=9-----9-|
|------------12----12-------|-(12)--------------------12----|
|---------------------------|-------------------------------|
|---------------------------|-------------------------------|
|
| Gtr IV
|  W                            S S E    E E  H
|---------------------------|-------------------------------|
|---------------------------|-------------------------------|
|---------------------------|-------------------------------|
|---------------------------|-------------------------------|
|---------------------------|---7h8p7------7----------------|
|---------------------------|-----------10---10-------------|


    E   S S  E E   E   E  E E     E  S S  E   E  E  E  E E
    |   | |  | |   |   |  | |     |  | |  |   |  |  |  | |
    /   / /  / /   /   /  / /     /  / /  /   /  /  /  / /

    E   E    Q    +H             +Q       E   E  E  E  E E
|-----------------------------|-----------------------------|
|--12-------------------------|-----------------------------|
|------14---12---(12)---------|-(12)-----11--12-14-12-11----|
|-----------------------------|-----------------------------|
|-----------------------------|-----------------------------|
|-----------------------------|-----------------------------|
|
|   E   E    Q    +H             +Q       E   E  E  E  E E
|-----------------------------|-----------------------------|
|-----------------------------|-----------------------------|
|-----------------------------|-----------------------------|
|--12--10----9----(9)---------|--(9)------7---9-10--9--7----|
|-----------------------------|-----------------------------|
|-----------------------------|-----------------------------|
|
|  +H              S S E  E E     E  E    H.
|-----------------------------|-----------------------------|
|-----------------------------|-----------------------------|
|-----------------------------|-----------------------------|
|-----------------------------|-----------------------------|
|------------------7h8p7----7-|-----------------------------|
|-(10)-------------------10---|--10--8----7-----------------|


  E
   E S S E E E E E E     E  S S  E  E  E  E  E E
   | | | | | | | | |     |  | |  |  |  |  |  | |
   o / / / / / / / /     /  / /  /  /  /  /  / /

   W                    +Q       E  E  E  E  E E
|--------------------|---------------------------|
|--------------------|----------12-13-15-13-12---|
|-12-----------------|-(12)----------------------|
|--------------------|---------------------------|
|--------------------|---------------------------|
|--------------------|---------------------------|
|
|  W                    +Q       E  E  E  E  E E
|--------------------|---------------------------|
|--------------------|---------------------------|
|--------------------|---------------------------|
|--9-----------------|--(9)----------------------|
|--------------------|-----------7--9-10--9--7---|
|--------------------|---------------------------|
|
|  Q     E E E E E E     W
|--------------------|---------------------------|
|--------------------|---------------------------|
|--------------------|---------------------------|
|--------------------|---------------------------|
|--------------------|---------------------------|
|--------5-7-8-7-5---|---7-----------------------|


   E  S S E E E E E E     E  S S E E E E E E
   |  | | | | | | | |     |  | | | | | | | |
   /  / / / / / / / /     /  / / / / / / / /

   W                     +W
|---------------------|----------------------||
|-12------------------|-(12)-----------------||
|---------------------|----------------------||
|---------------------|----------------------||
|---------------------|----------------------||
|---------------------|----------------------||
|
|  W                     +W
|---------------------|----------------------||
|---------------------|----------------------||
|---------------------|----------------------||
|---------------------|----------------------||
|--7------------------|--(7)-----------------||
|---------------------|----------------------||
|
| +Q      E E E E E E     W
|---------------------|----------------------||
|---------------------|----------------------||
|---------------------|----------------------||
|---------------------|----------------------||
|---------------------|----------------------||
|-(7)-----0-2-3-2-0---|---0------------------||


  E
   E     S S  E  E  E   E  E E     E  S S E E  E     E  E  E
   |     | |  |  |  |   |  | |     |  | | | |  |     |  |  |
   o     / /  /  /  /   /  / /     /  / / / /  /     /  /  /

   S  S  E    E  E  H             +H           S  S  E  E  E
|-12h13p12---------------------|--------------12h13p12-------|
|------------15-13-12----------|-(12)------------------15-13-|
|------------------------------|-----------------------------|
|------------------------------|-----------------------------|
|------------------------------|-----------------------------|
|------------------------------|-----------------------------|
|
|  S  S  E    E  E  H             +H           S  S  E  E  E
|------------------------------|-----------------------------|
|------------------------------|-----------------------------|
|--9h10p=9-------9-------------|---------------9h10p=9-----9-|
|------------12----12----------|-(12)------------------12----|
|------------------------------|-----------------------------|
|------------------------------|-----------------------------|
|
|  H                S S E  E E     W
|------------------------------|-----------------------------|
|------------------------------|-----------------------------|
|------------------------------|-----------------------------|
|------------------------------|-----------------------------|
|-------------------7h8p7----7-|-----------------------------|
|-------------------------10---|--10-------------------------|


    E   S S  E E   E   E  E E     E  S S  E   E  E  E  E E
    |   | |  | |   |   |  | |     |  | |  |   |  |  |  | |
    /   / /  / /   /   /  / /     /  / /  /   /  /  /  / /

    E   E    Q    +H             +Q       E   E  E  E  E E
|-----------------------------|-----------------------------|
|--12-------------------------|-----------------------------|
|------14---12---(12)---------|-(12)-----11--12-14-12-11----|
|-----------------------------|-----------------------------|
|-----------------------------|-----------------------------|
|-----------------------------|-----------------------------|
|
|   E   E    Q    +H             +Q       E   E  E  E  E E
|-----------------------------|-----------------------------|
|-----------------------------|-----------------------------|
|-----------------------------|-----------------------------|
|--12--10----9----(9)---------|--(9)------7---9-10--9--7----|
|-----------------------------|-----------------------------|
|-----------------------------|-----------------------------|
|
|  +H              S S E  E E     E  E    H.
|-----------------------------|-----------------------------|
|-----------------------------|-----------------------------|
|-----------------------------|-----------------------------|
|-----------------------------|-----------------------------|
|------------------7h8p7----7-|-----------------------------|
|-(10)-------------------10---|--10--8----7-----------------|


  N.C.(E5)
  Gtrs II, III
   W                    +Q       E  E  E  E  E E
|--------------------|---------------------------|
|--------------------|----------12-13-15-13-12---|
|-12-----------------|-(12)----------------------|
|--9-----------------|--(9)----------------------|
|--------------------|-----------7--9-10--9--7---|
|--------------------|---------------------------|
|
| Gtr IV
|  Q     E E E E E E     W
|--------------------|---------------------------|
|--------------------|---------------------------|
|--------------------|---------------------------|
|--------------------|---------------------------|
|--------------------|---------------------------|
|--------5-7-8-7-5---|---7-----------------------|
|
| Gtr I
|  PM---------------------------------------------
|  E S S E E E E E E     E  S S  E  E  E  E  E E
|--------------------|---------------------------|
|--------------------|---------------------------|
|--------------------|---------------------------|
|--------------------|---------------------------|
|--------------------|---------------------------|
|--0-0-0-0-0-0-0-0-0-|---0--0-0--0--0--0--0--0-0-|


   W                     +W
|---------------------|----------------------||
|-12------------------|-(12)-----------------||
|---------------------|----------------------||
|---------------------|----------------------||
|--7------------------|--(7)-----------------||
|---------------------|----------------------||
|
| +Q      E E E E E E     W
|---------------------|----------------------||
|---------------------|----------------------||
|---------------------|----------------------||
|---------------------|----------------------||
|---------------------|----------------------||
|-(7)-----0-2-3-2-0---|---0------------------||
|
|----------------------------------|
|  E  S S E E E E E E     E  S S E E   H
|---------------------|----------------------||
|---------------------|----------------------||
|---------------------|----------------------||
|---------------------|----------------------||
|---------------------|----------------------||
|--0--0-0-0-0-0-0-0-0-|---0--0-0-0-0-/17\----||


   Verse
    N.C.(E5)                      N.C.
    Gtrs I, II
    PM----|   PM----|   PM----|     PM----|   PM|
    S S S S E S S S S E S S S S   E S S S S E S S E E E
||------------------------------|-----------------------|
||o-----------------------------|-----------------------|
||------------------------------|-----------------------|
||------------------------------|-3---------0-----3-3-2-|
||o---------2---------2---------|-3-0-0-0-0-0-0-0-3-3-2-|
||--0-0-0-0-0-0-0-0-0-0-0-0-0-0-|-----------------------|


          Bb5                 N.C.(F5)F5/N.C.(G5)G5/D
  PM----|   PM----|   PM|     PM----|    PM----|
  S S S S E S S S S E S S E   S S S S Q  S S S S Q   4x
|---------------------------|------------------------||
|---------------------------|-----------------------o||
|---------------------------|------------------------||
|---------3---------3-----3-|---------3----------5---||
|-1-1-1-1-1-1-1-1-1-1-1-1-1-|---------3----------5--o||
|---------------------------|-1-1-1-1----3-3-3-3-----||


   Verse
    N.C.
    Gtrs I, II
    PM-----------------------------------
    S S S S S S S S S S S S  S  S  S  S
||--------------------------------------|
||o-------------------------------------|
||--------------------------------------|
||----------9-9-9-9-7-7-7-7-------------|
||o-7-7-7-7-----------------10-10-10-10-|
||--------------------------------------|


 ---------------------------------------|
   S  S  S  S S S S S  S  S  S  S S S S S
|------------------------------------------|
|------------------------------------------|
|------------------------------------------|
|-10-10-10-10-9-9-9-9-------------7-7-7-7--|
|---------------------10-10-10-10----------|
|------------------------------------------|


                                                        Eb5/Bb
  PM--------------------------------------------------|
  S S S S S S S S S S S S  S  S  S  S   S S S S S S S S Q  Q
|-------------------------------------|------------------------||
|-------------------------------------|-----------------------o||
|-------------------------------------|-----------------8--8---||
|---------9-9-9-9-7-7-7-7-------------|-----------------8--8---||
|-7-7-7-7-----------------10-10-10-10-|-5-5-5-5-5-5-5-5-------o||
|-------------------------------------|------------------------||


 Bridge
  N.C.(E5)
  PM-------------------------------
  S S S S S S S S S S S S S S S S
|---------------------------------|
|---------------------------------|
|---------------------------------|
|---------------------------------|
|-7-7-7-7-7-7-7-7-7-7-7-7-7-7-7-7-|
|---------------------------------|


  N.C.(G5)
 ----------------------------------------------|
   S  S  S  S  S  S  S  S  S  S  S  S  S  S  S  S
|-------------------------------------------------|
|-------------------------------------------------|
|-------------------------------------------------|
|-------------------------------------------------|
|-10-10-10-10-10-10-10-10-10-10-10-10-10-10-10-10-|
|-------------------------------------------------|


  N.C.(F#5)                         N.C.(D5)
  PM--------------------------------------------------------------|
  S S S S S S S S S S S S S S S S   S S S S S S S S S S S S S S S S
|---------------------------------|---------------------------------|
|---------------------------------|---------------------------------|
|---------------------------------|---------------------------------|
|---------------------------------|---------------------------------|
|-9-9-9-9-9-9-9-9-9-9-9-9-9-9-9-9-|-5-5-5-5-5-5-5-5-5-5-5-5-5-5-5-5-|
|---------------------------------|---------------------------------|


  N.C.(E5)
  PM-------------------------------
  S S S S S S S S S S S S S S S S
|---------------------------------|
|---------------------------------|
|---------------------------------|
|---------------------------------|
|-7-7-7-7-7-7-7-7-7-7-7-7-7-7-7-7-|
|---------------------------------|


  N.C.(G5)
 ----------------------------------------------|
   S  S  S  S  S  S  S  S  S  S  S  S  S  S  S  S
|-------------------------------------------------|
|-------------------------------------------------|
|-------------------------------------------------|
|-------------------------------------------------|
|-10-10-10-10-10-10-10-10-10-10-10-10-10-10-10-10-|
|-------------------------------------------------|


  N.C.(A5)
   PM----------------------------------------------
   S  S  S  S  S  S  S  S  S  S  S  S  S  S  S  S
|-------------------------------------------------|
|-------------------------------------------------|
|-------------------------------------------------|
|-------------------------------------------------|
|-12-12-12-12-12-12-12-12-12-12-12-12-12-12-12-12-|
|-------------------------------------------------|


  N.C.(D5)
 -------------------------------|
  S S S S S S S S S S S S S S S S
|---------------------------------||
|---------------------------------||
|---------------------------------||
|---------------------------------||
|-5-5-5-5-5-5-5-5-5-5-5-5-5-5-5-5-||
|---------------------------------||


   Outro
    N.C.
    Gtr II
     S  S  S  S  S  S  S  S  S  S  S  S  S  S  S  S
||--------------------------------------------------|
||o-------------------------------------------------|
||--------------16-16-16-16-------------17-17-17-17-|
||--14-14-14-14-------------14-14-14-14-------------|
||o-------------------------------------------------|
||--------------------------------------------------|
|
|   Gtr I
|    PM----------------------------------------------
|    S  S  S  S  S  S  S  S  S  S  S  S  S  S  S  S
||--------------------------------------------------|
||o-------------------------------------------------|
||--------------------------------------------------|
||--------------------------------------------------|
||o--------------2--2--2--2--------------3--3--3--3-|
||---0--0--0--0--------------0--0--0--0-------------|


   S  S  S  S  S  S  S  S  S  S  S  S  S  S  S  S
|--------------------------------------------------|
|--------------------------------------------------|
|-------------16-16-16-16-------------17-17-17-17--|
|-14-14-14-14-------------14-14-14-14--------------|
|--------------------------------------------------|
|--------------------------------------------------|
|
|----------------------------------------------|
|  S  S  S  S  S  S  S  S  S  S  S  S  S  S  S  S
|--------------------------------------------------|
|--------------------------------------------------|
|--------------------------------------------------|
|--------------------------------------------------|
|--------------2--2--2--2--------------3--3--3--3--|
|--0--0--0--0--------------0--0--0--0--------------|


   S  S  S  S  S  S  S  S  S  S  S  S  S  S  S  S
|-------------------------------------------------|
|-------------------------------------------------|
|-------------17-17-17-17-------------18-18-18-18-|
|-15-15-15-15-------------15-15-15-15-------------|
|-------------------------------------------------|
|-------------------------------------------------|
|
|  PM----------------------------------------------
|  S  S  S  S  S  S  S  S  S  S  S  S  S  S  S  S
|-------------------------------------------------|
|-------------------------------------------------|
|-------------------------------------------------|
|-------------------------------------------------|
|--------------3--3--3--3--------------4--4--4--4-|
|--1--1--1--1--------------1--1--1--1-------------|


   S  S  S  S  S  S  S  S  S  S  S  S  S  S  S  S  6x
|--------------------------------------------------||
|-------------------------------------------------o||
|-------------17-17-17-17-------------18-18-18-18--||
|-15-15-15-15-------------15-15-15-15--------------||
|-------------------------------------------------o||
|--------------------------------------------------||
|
|----------------------------------------------|
|  S  S  S  S  S  S  S  S  S  S  S  S  S  S  S  S  6x
|--------------------------------------------------||
|-------------------------------------------------o||
|--------------------------------------------------||
|--------------------------------------------------||
|--------------3--3--3--3--------------4--4--4--4-o||
|--1--1--1--1--------------1--1--1--1--------------||



Duration Legend
---------------
W - whole; H - half; Q - quarter; E - 8th; S - 16th; T - 32nd; X - 64th; a - acciaccatura
+ - note tied to previous; . - note dotted; .. - note double dotted
Uncapitalized letters represent notes that are staccato (1/2 duration)
Irregular groupings are notated above the duration line
Duration letters will always appear directly above the note/fret number it represents the
duration for.  Duration letters with no fret number below them represent rests.  Multi-
bar rests are notated in the form Wxn, where n is the number of bars to rest for.  Low
melody durations appear below the staff

Tablature Legend
----------------
 h   - hammer-on
 p   - pull-off
 b   - bend
 pb  - pre-bend
 r   - bend release (if no number after the r, then release immediately)
 /\  - slide into or out of (from/to "nowhere")
 s   - legato slide
 S   - shift slide
 - natural harmonic
[n]  - artificial harmonic
n(n) - tapped harmonic
 ~   - vibrato
 tr  - trill
 T   - tap
 TP  - trem. picking
 PM  - palm muting
\n/  - tremolo bar dip; n = amount to dip
 \n  - tremolo bar down
 n/  - tremolo bar up
/n\  - tremolo bar inverted dip
 =   - hold bend; also acts as connecting device for hammers/pulls
 <> - volume swell (louder/softer)
 x   - on rhythm slash represents muted slash
 o   - on rhythm slash represents single note slash

Misc Legend
-----------
 |  - bar
||  - double bar
||o - repeat start
o|| - repeat end
*|  - double bar (ending)
 :  - bar (freetime)
 $  - Segno
 &  - Coda
Tempo markers -  = BPM(8/16=s8/s16), where s8 = swing 8ths, s16 = swing 16ths

Добавлено: 24.04.2012
Другие материалы по этой песне:

Страница создана 25.02.2012
http://primanota.ru/demons-and-wizards/terror-train-chords.htm
Привет, Гость.
Предлагаем пройти революционный курс по гитаре.
Подарок от PrimaNota.Ru, забирай!