PrimaNota.ru - самый крупный в мире бесплатный архив песенных текстов, аккордов, табулатур и нот


Demons And Wizards - Immigrant Song - таба, видео

Регистрация Запомнить меня
Войти через:  Facebook Google Twitter Vk Yandex Mail.ru

Demons And Wizards - Immigrant Song - таба, видео

Печатать
Просмотров: 114
Авторы: Jimmy Page, Robert Plant

As recorded by Demons & Wizards
(From the 2005 Album TOUCHED BY THE CRIMSON KING)

Transcribed by Russ Elton (webmaster@abysslord.com) & Jordan B. (sansamppsa1@hotmail.com)
        

Words and Music by Jimmy Page/Robert Plant
Arranged by Russ Elton (webmaster@abysslord.com)

Gtr I (D G C F A D) - 'Distortion Guitar'

 Intro
  Q=114
  N.C.(F#)
 4/4
  Gtr I
  PM----|   PM----------|   PM------------|   PM----------|   PM--|
  S S S S S S S S S S S S S S S S   S S S S S S S S S S S S S S S S
|---------------------------------|----------------------------------|
|---------------------------------|----------------------------------|
|---------------------------------|----------------------------------|
|---------4---------------4-------|---------4---------------4--------|
|---------------------------------|----------------------------------|
|-2---2-2---2---2-2---2-2---2---2-|-2---2-2---2---2-2---2-2---2---2--|


   Pre-Verse
    $
    PM----|   PM----------|   PM------------|   PM----------|   PM--|
    S S S S S S S S S S S S S S S S   S S S S S S S S S S S S S S S S
||----------------------------------|-----------------------------------||
||o---------------------------------|----------------------------------o||
||----------------------------------|-----------------------------------||
||----------4---------------4-------|---------4---------------4---------||
||o---------------------------------|----------------------------------o||
||--2---2-2---2---2-2---2-2---2---2-|-2---2-2---2---2-2---2-2---2---2---||


                                                        A5
  PM----|   PM----------|   PM------------|   PM------|
  S S S S S S S S S S S S S S S S   S S S S S S S S S S E Q
|---------------------------------|-----------------------0--||
|---------------------------------|--------------------------||
|---------------------------------|---------------------2-2--||
|---------4---------------4-------|---------4-----------2-2--||
|---------------------------------|---------------------0-0--||
|-2---2-2---2---2-2---2-2---2---2-|-2---2-2---2---2-2--------||


 Verse
  E5                   A5
  W          +H     Q  Q
|-0--------|-(0)----------|
|-0--------|-(0)----------|
|----------|-----------2--|
|-2--------|-(2)----2--2--|
|-2--------|-(2)----2--0--|
|-0--------|-(0)----0-----|


    N.C.(F#)
    PM----|   PM----------|   PM------------|   PM----------|   PM--|
    S S S S S S S S S S S S S S S S   S S S S S S S S S S S S S S S S
||----------------------------------|-----------------------------------||
||o---------------------------------|----------------------------------o||
||----------------------------------|-----------------------------------||
||----------4---------------4-------|---------4---------------4---------||
||o---------------------------------|----------------------------------o||
||--2---2-2---2---2-2---2-2---2---2-|-2---2-2---2---2-2---2-2---2---2---||


                                                        A5
  PM----|   PM----------|   PM------------|   PM------|
  S S S S S S S S S S S S S S S S   S S S S S S S S S S E Q
|---------------------------------|-----------------------0--|
|---------------------------------|--------------------------|
|---------------------------------|---------------------2-2--|
|---------4---------------4-------|---------4-----------2-2--|
|---------------------------------|---------------------0-0--|
|-2---2-2---2---2-2---2-2---2---2-|-2---2-2---2---2-2--------|


  E5                   A5
  W          +H     Q  Q
|-0--------|-(0)----------|
|-0--------|-(0)----------|
|----------|-----------2--|
|-2--------|-(2)----2--2--|
|-2--------|-(2)----2--0--|
|-0--------|-(0)----0-----|


                                                           To Coda
  N.C.(F#)
  PM----|   PM----------|   PM------------|   PM----------|   PM--|
  S S S S S S S S S S S S S S S S   S S S S S S S S S S S S S S S S
|---------------------------------|---------------------------------||
|---------------------------------|---------------------------------||
|---------------------------------|---------------------------------||
|---------4---------------4-------|---------4---------------4-------||
|---------------------------------|---------------------------------||
|-2---2-2---2---2-2---2-2---2---2-|-2---2-2---2---2-2---2-2---2---2-||


 Chorus
                                      D.S. al Coda
  A5         B5         C5                  N.C.
  W          W          W          +H     E E  Q
|----------|----------|----------|-----------------||
|----------|----------|----------|-----------------||
|----------|----------|----------|-----------------||
|-2--------|-4--------|-5--------|-(5)-------------||
|-0--------|-2--------|-3--------|-(3)-------------||
|----------|----------|----------|----------3s12\--||


 2nd Chorus
  &
  A5         B5         C5
  W          W          W          +H     E E Q
|----------|----------|----------|---------------||
|----------|----------|----------|---------------||
|----------|----------|----------|---------------||
|-2--------|-4--------|-5--------|-(5)----5------||
|-0--------|-2--------|-3--------|-(3)----3------||
|----------|----------|----------|---------------||


   Outro
    N.C.(F#)
    PM----|   PM----------|   PM------------|   PM----------|   PM--|
    S S S S S S S S S S S S S S S S   S S S S S S S S S S S S S S S S
||----------------------------------|-----------------------------------||
||o---------------------------------|----------------------------------o||
||----------------------------------|-----------------------------------||
||----------4---------------4-------|---------4---------------4---------||
||o---------------------------------|----------------------------------o||
||--2---2-2---2---2-2---2-2---2---2-|-2---2-2---2---2-2---2-2---2---2---||


                                                              N.C.
    PM----|   PM----------|   PM------------|   PM----------|
    S S S S S S S S S S S S S S S S   S S S S S S S S S S S S Q    4x
||----------------------------------|------------------------------||
||o---------------------------------|-----------------------------o||
||----------------------------------|------------------------------||
||----------4---------------4-------|---------4---------------4----||
||o---------------------------------|-------------------------3---o||
||--2---2-2---2---2-2---2-2---2---2-|-2---2-2---2---2-2---2-2-2----||


  N.C.(F#)                N.C. N.C.(F#)                N.C.
  PM----|   PM----------|      PM----|   PM----------|
  S S S S S S S S S S S S Q    S S S S S S S S S S S S Q
|----------------------------|----------------------------|
|----------------------------|----------------------------|
|----------------------------|----------------------------|
|---------4---------------4--|---------4---------------4--|
|-------------------------3--|-------------------------3--|
|-2---2-2---2---2-2---2-2-2--|-2---2-2---2---2-2---2-2-2--|


    N.C.(F#)                N.C. N.C.(F#)                N.C.
    PM----|   PM----------|      PM----|   PM----------|
    S S S S S S S S S S S S Q    S S S S S S S S S S S S Q
||-----------------------------|-----------------------------||
||o----------------------------|----------------------------o||
||-----------------------------|-----------------------------||
||----------4---------------4--|---------4---------------4---||
||o-------------------------3--|-------------------------3--o||
||--2---2-2---2---2-2-2-2-2-2--|-2---2-2---2---2-2-2-2-2-2---||


  N.C.(F#)                N.C. N.C.(F#)
  PM----|   PM----------|      PM----|   PM----|
  S S S S S S S S S S S S Q    S S S S S S S S S S E Q
|----------------------------|---------------------------*|
|----------------------------|---------------------------*|
|----------------------------|---------------------------*|
|---------4---------------4--|---------4-----------------*|
|-------------------------3--|---------------------------*|
|-2---2-2---2---2-2-2-2-2-2--|-2---2-2---2-2-2-2---------*|



Duration Legend
---------------
W - whole; H - half; Q - quarter; E - 8th; S - 16th; T - 32nd; X - 64th; a - acciaccatura
+ - note tied to previous; . - note dotted; .. - note double dotted
Uncapitalized letters represent notes that are staccato (1/2 duration)
Irregular groupings are notated above the duration line
Duration letters will always appear directly above the note/fret number it represents the
duration for.  Duration letters with no fret number below them represent rests.  Multi-
bar rests are notated in the form Wxn, where n is the number of bars to rest for.  Low
melody durations appear below the staff

Tablature Legend
----------------
 h   - hammer-on
 p   - pull-off
 b   - bend
 pb  - pre-bend
 r   - bend release (if no number after the r, then release immediately)
 /\  - slide into or out of (from/to "nowhere")
 s   - legato slide
 S   - shift slide
 - natural harmonic
[n]  - artificial harmonic
n(n) - tapped harmonic
 ~   - vibrato
 tr  - trill
 T   - tap
 TP  - trem. picking
 PM  - palm muting
\n/  - tremolo bar dip; n = amount to dip
 \n  - tremolo bar down
 n/  - tremolo bar up
/n\  - tremolo bar inverted dip
 =   - hold bend; also acts as connecting device for hammers/pulls
 <> - volume swell (louder/softer)
 x   - on rhythm slash represents muted slash
 o   - on rhythm slash represents single note slash

Misc Legend
-----------
 |  - bar
||  - double bar
||o - repeat start
o|| - repeat end
*|  - double bar (ending)
 :  - bar (freetime)
 $  - Segno
 &  - Coda
Tempo markers -  = BPM(8/16=s8/s16), where s8 = swing 8ths, s16 = swing 16ths

Добавлено: 03.07.2012
Другие материалы по этой песне:
  • Аккорды и текст

Страница создана 03.07.2012
http://primanota.ru/demons-and-wizards/immigrant-song-chords.htm
Привет, Гость.
Предлагаем пройти революционный курс по гитаре.
Подарок от PrimaNota.Ru, забирай!