PrimaNota.ru - самый крупный в мире бесплатный архив песенных текстов, аккордов, табулатур и нот


Demons And Wizards - The Whistler - текст песни, таба, видео

Регистрация Запомнить меня
Войти через:  Facebook Google Twitter Vk Yandex Mail.ru

Demons And Wizards - The Whistler - текст песни, таба, видео

Печатать
Просмотров: 145
Уроки эстрадного вокала в Санкт-Петербурге
As recorded by Demons & Wizards
(From the 1999 Album DEMONS & WIZARDS)

Transcribed by Russ Elton (webmaster@abysslord.com)
	

Words and Music by Jon Schaffer/Hansi Kürsch
Arranged by Russ Elton (webmaster@abysslord.com)

E5
0 2 x x x x
	
E5(type 2)
x 7 9 x x x
	
D5
x 5 7 x x x
	
C5
x 3 5 x x x

F5
x 8 10 x x x
	
G5
x 10 12 x x x

Gtr I (Eb Ab Db Gb Bb Eb) - 'Distortion Guitar'
Gtr II (Eb Ab Db Gb Bb Eb) - 'Lead Guitar'
Gtr III (Eb Ab Db Gb Bb Eb) - 'Lead Guitar'
Gtr IV (Eb Ab Db Gb Bb Eb) - 'Lead Guitar'
Gtr V (Eb Ab Db Gb Bb Eb) - 'Lead Guitar'
Gtr VI (Eb Ab Db Gb Bb Eb) - 'Acoustic Guitar'

   Intro
    Q=125
    Em                Cmaj7              Em                G      Gadd9/F
   4/4
    Gtr VI
    E E E E E E E E   E E E E +E  E Q    E E E E E E E E    E E E E E E E E
||------------------|-------0-(0)------|-----------------|--------------------||
||o---------0-------|-------------0----|---------0-------|--------------0----o||
||--------0---0-----|-----0---------0--|-------0---0-----|------0-----0---0---||
||------9-------9---|---5--------------|-----9-------9---|----9-----7---------||
||o---7-----------0-|-3----------------|---7-----------0-|-10-----8----------o||
||--0---------------|------------------|-0---------------|--------------------||


   Verse
    $
    Em                Cmaj7              Em                G      Gadd9/F
    E E E E E E E E   E E E E +E  E Q    E E E E E E E E    E E E E E E E E   4x
||------------------|-------0-(0)------|-----------------|--------------------||
||o---------0-------|-------------0----|---------0-------|--------------0----o||
||--------0---0-----|-----0---------0--|-------0---0-----|------0-----0---0---||
||------9-------9---|---5--------------|-----9-------9---|----9-----7---------||
||o---7-----------0-|-3----------------|---7-----------0-|-10-----8----------o||
||--0---------------|------------------|-0---------------|--------------------||


   Bridge
    N.C.(E)                                                     F5/G5/DN.C.(E)
    Gtr III
                          ~~                ~~                   ~~
    E  E    E   E  +E     Q     E      +E   Q      E  +E    E    Q
||----------------------------------|--------------------------------|
||o---10---12-/13-(13)---12---/13---|-(13)-12-----10-(10)-/13---12---|
||----------------------------------|--------------------------------|
||----------------------------------|--------------------------------|
||o---------------------------------|--------------------------------|
||----------------------------------|--------------------------------|
|
|   Gtr II
|                         ~~                ~~                   ~~
|   E  E    E   E  +E     Q     E      +E   Q      E  +E    E    Q
||----------------------------------|--------------------------------|
||o---------------------------------|--------------------------------|
||----------------------------------|--------------------------------|
||-----7----9-/10-(10)----9---/10---|-(10)--9------7--(7)-/10----9---|
||o---------------------------------|--------------------------------|
||----------------------------------|--------------------------------|
|
|   Gtr I
|   PM--------------------------------------------------------|
|   E  S S  E   E   S  S  E E   S S     E   E S S  E   E    S S  E E
||----------------------------------|--------------------------------|
||o---------------------------------|--------------------------------|
||----------------------------------|--------------------------------|
||----------------------------------|----------------------------3-5-|
||o---------------------------------|----------------------------3-5-|
||--0--0-0--0---0---0--0--0-0---0-0-|---0---0-0-0--0---0----0-0------|


                                                          D.S.
                                                          G5F5/C
                        ~~                   ~~~
  E  E    E   E  +E     Q     E      +E   E  H.
|---------------------------------|-----------------------------||
|---10---12-/13-(13)---12---/15---|-(15)-13-12-----------------o||
|---------------------------------|-----------------------------||
|---------------------------------|-----------------------------||
|---------------------------------|----------------------------o||
|---------------------------------|-----------------------------||
|
|                       ~~                   ~~~
| E  E    E   E  +E     Q     E      +E   E  H.
|---------------------------------|-----------------------------||
|---------------------------------|----------------------------o||
|---------------------------------|-----------------------------||
|----7----9-/10-(10)----9---/12---|-(12)-10--9------------------||
|---------------------------------|----------------------------o||
|---------------------------------|-----------------------------||
|
| PM----------------------------------------------------|
| E  S S  E   E   S  S  E E   S S     E   E  S  S E E S S E E
|---------------------------------|-----------------------------||
|---------------------------------|----------------------------o||
|---------------------------------|-----------------------------||
|---------------------------------|-----------------------5-3---||
|---------------------------------|-----------------------5-3--o||
|-0--0-0--0---0---0--0--0-0---0-0-|---0---0--0--0-0-0-0-0-------||


   Verse
    N.C.(E)                                 F5G5/DN.C.(E)
    Gtr I
    PM------------------------------------|
    E S S E E S S E E S S   E E S S E E S S E E
||------------------------|---------------------|
||o-----------------------|---------------------|
||------------------------|---------------------|
||------------------------|-----------------3-5-|
||o-----------------------|-----------------3-5-|
||--0-0-0-0-0-0-0-0-0-0-0-|-0-0-0-0-0-0-0-0-----|


                                          G5F5/C
  PM------------------------------------|
  E S S E E S S E E S S   E E S S E E S S E E
|-----------------------|-----------------------||
|-----------------------|----------------------o||
|-----------------------|-----------------------||
|-----------------------|-----------------5-3---||
|-----------------------|-----------------5-3--o||
|-0-0-0-0-0-0-0-0-0-0-0-|-0-0-0-0-0-0-0-0-------||


 Chorus
         E5      D5    C5         F5     D5     F5 E5
  Gtr III
   ~~~~~~~~~~~~~~~~~~~~~~~~~~~~~~~~~~~~~~~~~~~
   W                        +H              Q       E   E
|------------------------|--------------------------------|
|-12---------------------|-(12)------------12------12h=15-|
|------------------------|--------------------------------|
|------------------------|--------------------------------|
|------------------------|--------------------------------|
|------------------------|--------------------------------|
|
| Gtr II
|  ~~~~~~~~~~~~~~~~~~~~~~~~~~~~~~~~~~~~~~~~~~~
|  W                        +H              Q       E   E
|------------------------|--------------------------------|
|------------------------|--------------------------------|
|-12---------------------|-(12)------------12------12h=16-|
|------------------------|--------------------------------|
|------------------------|--------------------------------|
|------------------------|--------------------------------|
|
| Gtr I
|  PM--|     PM|   PM|       PM-|    PM|    PM|
|  E S S Q   S S E S S E     S  S  E S S E  S S  E  Q
|------------------------|--------------------------------|
|------------------------|--------------------------------|
|------------------------|--------------------------------|
|--------9\------7-----5-|--------10-----7------10--9\----|
|--------7\------5-----3-|---------8-----5-------8--7\----|
|--0-0-0-----0-0---0-0---|---0--0----0-0----0-0-----------|


                 D5    C5         F5     G5      F5 E5
   ~~~~~~~~~~~~~~~~~~~~~~~~~~~~~
   W                        +H               E    E  E   E
|------------------------|---------------------------------|
|-13---------------------|-(13)-------------15---13-12h=13-|
|------------------------|---------------------------------|
|------------------------|---------------------------------|
|------------------------|---------------------------------|
|------------------------|---------------------------------|
|
|  ~~~~~~~~~~~~~~~~~~~~~~~~~~~~~
|  W                        +H               E    E  E   E
|------------------------|---------------------------------|
|------------------------|---------------------------------|
|-14---------------------|-(14)-------------16---14-12h=14-|
|------------------------|---------------------------------|
|------------------------|---------------------------------|
|------------------------|---------------------------------|
|
|  PM--|     PM|   PM|       PM-|    PM|     PM|
|  E S S Q   S S E S S E     S  S  E S S  E  S S  E  Q
|------------------------|---------------------------------|
|------------------------|---------------------------------|
|------------------------|---------------------------------|
|--------9\------7-----5-|--------10-----12------10--9\----|
|--------7\------5-----3-|---------8-----10-------8--7\----|
|--0-0-0-----0-0---0-0---|---0--0----0-0-----0-0-----------|


                        D5    C5         F5     D5    F5 E5
   ~~~              ~~~~~~~~~~~~~~~~~~~~~~~~~~~~~~~~~~~~~~~~~~
   Q.         S  S  H              +H.                    +E   S  S
|-------------------------------|-----------------------------------|
|-10---------12h13-12-----------|-(12)-------------------(12)-12h13-|
|-------------------------------|-----------------------------------|
|-------------------------------|-----------------------------------|
|-------------------------------|-----------------------------------|
|-------------------------------|-----------------------------------|
|
|  ~~~              ~~~~~~~~~~~~~~~~~~~~~~~~~~~~~~~~~~~~~~~~~~
|  Q.         S  S  H              +H.                    +E   S  S
|-------------------------------|-----------------------------------|
|-------------------------------|-----------------------------------|
|-11---------12h14-12-----------|-(12)-------------------(12)-12h14-|
|-------------------------------|-----------------------------------|
|-------------------------------|-----------------------------------|
|-------------------------------|-----------------------------------|
|
|  PM---|           PM|   PM|       PM-|    PM|   PM|
|  E  S S Q         S S E S S E     S  S  E S S E S S  E   Q
|-------------------------------|-----------------------------------|
|-------------------------------|-----------------------------------|
|-------------------------------|-----------------------------------|
|---------9\------------7-----5-|--------10-----7-----10---9\-------|
|---------7\------------5-----3-|---------8-----5------8---7\-------|
|--0--0-0-----------0-0---0-0---|---0--0----0-0---0-0---------------|


                  D5       C5           F5     G5          F5 E5
   ~~~~~~~~~~~~~~~~~~~~~~          ~~                 ~~~
   H.                +E     S  S   Q.           S  S  Q.          S  S
|--------------------------------|---------------------------------------||
|-10----------------(10)---10h12-|-8-----------10h12---------------------||
|--------------------------------|-------------------11----------11h12---||
|--------------------------------|---------------------------------------||
|--------------------------------|---------------------------------------||
|--------------------------------|---------------------------------------||
|
|  ~~~~~~~~~~~~~~~~~~~~~~          ~~                 ~~~
|  H.                +E     S  S   Q.           S  S  Q.          S  S
|--------------------------------|---------------------------------------||
|--------------------------------|---------------------------------------||
|-11----------------(11)---11h12-|-9-----------11h12---------------------||
|--------------------------------|-------------------12----------12h14---||
|--------------------------------|---------------------------------------||
|--------------------------------|---------------------------------------||
|
|  PM---|     PM|     PM-|         PM-|    PM|        PM-|
|  E  S S Q   S S E   S  S  E      S  S  E S S  E     S  S  E Q
|--------------------------------|---------------------------------------||
|--------------------------------|---------------------------------------||
|--------------------------------|---------------------------------------||
|---------9\------7---------5----|------10-----12----------10-9\---------||
|---------7\------5---------3----|-------8-----10-----------8-7\---------||
|--0--0-0-----0-0-----0--0-------|-0--0----0-0--------0--0---------------||


 Verse
  N.C.(E)                                   F5G5/DN.C.(E)
                           >
  ~~~~~~~~~~~~~~~~~~~~~~~~~~~~
  W                       +W
|-----------------------|-----------------------|
|-----------------------|-----------------------|
|-9---------------------|-(9)-------------------|
|-----------------------|-----------------------|
|-----------------------|-----------------------|
|-----------------------|-----------------------|
|
|                          >
| ~~~~~~~~~~~~~~~~~~~~~~~~~~~~
| W                       +W
|-----------------------|-----------------------|
|-----------------------|-----------------------|
|-----------------------|-----------------------|
|-9---------------------|-(9)-------------------|
|-----------------------|-----------------------|
|-----------------------|-----------------------|
|
| PM--------------------------------------|
| E S S E E S S E E S S    E  E S S E E S S E E
|-----------------------|-----------------------|
|-----------------------|-----------------------|
|-----------------------|-----------------------|
|-----------------------|-------------------3-5-|
|-----------------------|-------------------3-5-|
|-0-0-0-0-0-0-0-0-0-0-0-|--0--0-0-0-0-0-0-0-----|


                                          G5F5/C
  W                       W
|-----------------------|-----------------------|
|-----------------------|-----------------------|
|-----------------------|-----------------------|
|-----------------------|-----------------------|
|-----------------------|-----------------------|
|-----------------------|-----------------------|
|
| W                       W
|-----------------------|-----------------------|
|-----------------------|-----------------------|
|-----------------------|-----------------------|
|-----------------------|-----------------------|
|-----------------------|-----------------------|
|-----------------------|-----------------------|
|
| PM------------------------------------|
| E S S E E S S E E S S   E E S S E E S S E E
|-----------------------|-----------------------|
|-----------------------|-----------------------|
|-----------------------|-----------------------|
|-----------------------|-----------------5-3---|
|-----------------------|-----------------5-3---|
|-0-0-0-0-0-0-0-0-0-0-0-|-0-0-0-0-0-0-0-0-------|


  N.C.(E)                                 F5G5/DN.C.(E)
  Gtr I
  PM------------------------------------|
  E S S E E S S E E S S   E E S S E E S S E E
|-----------------------|---------------------|
|-----------------------|---------------------|
|-----------------------|---------------------|
|-----------------------|-----------------3-5-|
|-----------------------|-----------------3-5-|
|-0-0-0-0-0-0-0-0-0-0-0-|-0-0-0-0-0-0-0-0-----|


                                          G5F5/C
  PM------------------------------------|
  E S S E E S S E E S S   E E S S E E S S E E
|-----------------------|-----------------------||
|-----------------------|-----------------------||
|-----------------------|-----------------------||
|-----------------------|-----------------5-3---||
|-----------------------|-----------------5-3---||
|-0-0-0-0-0-0-0-0-0-0-0-|-0-0-0-0-0-0-0-0-------||


 Chorus
  $$
         E5      D5    C5         F5     D5     F5 E5
  Gtr III
   ~~~~~~~~~~~~~~~~~~~~~~~~~~~~~~~~~~~~~~~~~~~
   W                        +H              Q       E   E
|------------------------|--------------------------------|
|-12---------------------|-(12)------------12------12h=15-|
|------------------------|--------------------------------|
|------------------------|--------------------------------|
|------------------------|--------------------------------|
|------------------------|--------------------------------|
|
| Gtr II
|  ~~~~~~~~~~~~~~~~~~~~~~~~~~~~~~~~~~~~~~~~~~~
|  W                        +H              Q       E   E
|------------------------|--------------------------------|
|------------------------|--------------------------------|
|-12---------------------|-(12)------------12------12h=16-|
|------------------------|--------------------------------|
|------------------------|--------------------------------|
|------------------------|--------------------------------|
|
| Gtr I
|  PM--|     PM|   PM|       PM-|    PM|    PM|
|  E S S Q   S S E S S E     S  S  E S S E  S S  E  Q
|------------------------|--------------------------------|
|------------------------|--------------------------------|
|------------------------|--------------------------------|
|--------9\------7-----5-|--------10-----7------10--9\----|
|--------7\------5-----3-|---------8-----5-------8--7\----|
|--0-0-0-----0-0---0-0---|---0--0----0-0----0-0-----------|


                 D5    C5         F5     G5      F5 E5
   ~~~~~~~~~~~~~~~~~~~~~~~~~~~~~
   W                        +H               E    E  E   E
|------------------------|---------------------------------|
|-13---------------------|-(13)-------------15---13-12h=13-|
|------------------------|---------------------------------|
|------------------------|---------------------------------|
|------------------------|---------------------------------|
|------------------------|---------------------------------|
|
|  ~~~~~~~~~~~~~~~~~~~~~~~~~~~~~
|  W                        +H               E    E  E   E
|------------------------|---------------------------------|
|------------------------|---------------------------------|
|-14---------------------|-(14)-------------16---14-12h=14-|
|------------------------|---------------------------------|
|------------------------|---------------------------------|
|------------------------|---------------------------------|
|
|  PM--|     PM|   PM|       PM-|    PM|     PM|
|  E S S Q   S S E S S E     S  S  E S S  E  S S  E  Q
|------------------------|---------------------------------|
|------------------------|---------------------------------|
|------------------------|---------------------------------|
|--------9\------7-----5-|--------10-----12------10--9\----|
|--------7\------5-----3-|---------8-----10-------8--7\----|
|--0-0-0-----0-0---0-0---|---0--0----0-0-----0-0-----------|


                        D5    C5         F5     D5    F5 E5
   ~~~              ~~~~~~~~~~~~~~~~~~~~~~~~~~~~~~~~~~~~~~~~~~
   Q.         S  S  H              +H.                    +E   S  S
|-------------------------------|-----------------------------------|
|-10---------12h13-12-----------|-(12)-------------------(12)-12h13-|
|-------------------------------|-----------------------------------|
|-------------------------------|-----------------------------------|
|-------------------------------|-----------------------------------|
|-------------------------------|-----------------------------------|
|
|  ~~~              ~~~~~~~~~~~~~~~~~~~~~~~~~~~~~~~~~~~~~~~~~~
|  Q.         S  S  H              +H.                    +E   S  S
|-------------------------------|-----------------------------------|
|-------------------------------|-----------------------------------|
|-11---------12h14-12-----------|-(12)-------------------(12)-12h14-|
|-------------------------------|-----------------------------------|
|-------------------------------|-----------------------------------|
|-------------------------------|-----------------------------------|
|
|  PM---|           PM|   PM|       PM-|    PM|   PM|
|  E  S S Q         S S E S S E     S  S  E S S E S S  E   Q
|-------------------------------|-----------------------------------|
|-------------------------------|-----------------------------------|
|-------------------------------|-----------------------------------|
|---------9\------------7-----5-|--------10-----7-----10---9\-------|
|---------7\------------5-----3-|---------8-----5------8---7\-------|
|--0--0-0-----------0-0---0-0---|---0--0----0-0---0-0---------------|


                  D5       C5           F5     G5          F5 E5
   ~~~~~~~~~~~~~~~~~~~~~~          ~~                 ~~~
   H.                +E     S  S   Q.           S  S  Q.          S  S
|--------------------------------|---------------------------------------|
|-10----------------(10)---10h12-|-8-----------10h12---------------------|
|--------------------------------|-------------------11----------11h12---|
|--------------------------------|---------------------------------------|
|--------------------------------|---------------------------------------|
|--------------------------------|---------------------------------------|
|
|  ~~~~~~~~~~~~~~~~~~~~~~          ~~                 ~~~
|  H.                +E     S  S   Q.           S  S  Q.          S  S
|--------------------------------|---------------------------------------|
|--------------------------------|---------------------------------------|
|-11----------------(11)---11h12-|-9-----------11h12---------------------|
|--------------------------------|-------------------12----------12h14---|
|--------------------------------|---------------------------------------|
|--------------------------------|---------------------------------------|
|
|  PM---|     PM|     PM-|         PM-|    PM|        PM-|
|  E  S S Q   S S E   S  S  E      S  S  E S S  E     S  S  E Q
|--------------------------------|---------------------------------------|
|--------------------------------|---------------------------------------|
|--------------------------------|---------------------------------------|
|---------9\------7---------5----|------10-----12----------10-9\---------|
|---------7\------5---------3----|-------8-----10-----------8-7\---------|
|--0--0-0-----0-0-----0--0-------|-0--0----0-0--------0--0---------------|


                D5    C5        F5     D5     F5 E5
  ~~~~~~~~~~~~~~~~~~~~~~~~~~~~~~~~~~~~~~~~~~
  W                       +H              Q       E   E
|-----------------------|-------------------------------|
|-----------------------|----------------12------12h=15-|
|-9---------------------|-(9)---------------------------|
|-----------------------|-------------------------------|
|-----------------------|-------------------------------|
|-----------------------|-------------------------------|
|
| ~~~~~~~~~~~~~~~~~~~~~~~~~~~~~~~~~~~~~~~~~~
| W                       +H              Q       E   E
|-----------------------|-------------------------------|
|-----------------------|-------------------------------|
|-----------------------|----------------12------12h=16-|
|-9---------------------|-(9)---------------------------|
|-----------------------|-------------------------------|
|-----------------------|-------------------------------|
|
| PM--|     PM|   PM|      PM-|    PM|    PM|
| E S S Q   S S E S S E    S  S  E S S E  S S  E  Q
|-----------------------|-------------------------------|
|-----------------------|-------------------------------|
|-----------------------|-------------------------------|
|-------9\------7-----5-|-------10-----7------10--9\----|
|-------7\------5-----3-|--------8-----5-------8--7\----|
|-0-0-0-----0-0---0-0---|--0--0----0-0----0-0-----------|


                 D5    C5         F5     G5      F5 E5
   ~~~~~~~~~~~~~~~~~~~~~~~~~~~~~
   W                        +H               E    E  E   E
|------------------------|---------------------------------|
|-13---------------------|-(13)-------------15---13-12h=13-|
|------------------------|---------------------------------|
|------------------------|---------------------------------|
|------------------------|---------------------------------|
|------------------------|---------------------------------|
|
|  ~~~~~~~~~~~~~~~~~~~~~~~~~~~~~
|  W                        +H               E    E  E   E
|------------------------|---------------------------------|
|------------------------|---------------------------------|
|-14---------------------|-(14)-------------16---14-12h=14-|
|------------------------|---------------------------------|
|------------------------|---------------------------------|
|------------------------|---------------------------------|
|
|  PM--|     PM|   PM|       PM-|    PM|     PM|
|  E S S Q   S S E S S E     S  S  E S S  E  S S  E  Q
|------------------------|---------------------------------|
|------------------------|---------------------------------|
|------------------------|---------------------------------|
|--------9\------7-----5-|--------10-----12------10--9\----|
|--------7\------5-----3-|---------8-----10-------8--7\----|
|--0-0-0-----0-0---0-0---|---0--0----0-0-----0-0-----------|


                        D5    C5         F5     D5    F5 E5
   ~~~              ~~~~~~~~~~~~~~~~~~~~~~~~~~~~~~~~~~~~~~~~~~
   Q.         S  S  H              +H.                    +E   S  S
|-------------------------------|-----------------------------------|
|-10---------12h13-12-----------|-(12)-------------------(12)-12h13-|
|-------------------------------|-----------------------------------|
|-------------------------------|-----------------------------------|
|-------------------------------|-----------------------------------|
|-------------------------------|-----------------------------------|
|
|  ~~~              ~~~~~~~~~~~~~~~~~~~~~~~~~~~~~~~~~~~~~~~~~~
|  Q.         S  S  H              +H.                    +E   S  S
|-------------------------------|-----------------------------------|
|-------------------------------|-----------------------------------|
|-11---------12h14-12-----------|-(12)-------------------(12)-12h14-|
|-------------------------------|-----------------------------------|
|-------------------------------|-----------------------------------|
|-------------------------------|-----------------------------------|
|
|  PM---|           PM|   PM|       PM-|    PM|   PM|
|  E  S S Q         S S E S S E     S  S  E S S E S S  E   Q
|-------------------------------|-----------------------------------|
|-------------------------------|-----------------------------------|
|-------------------------------|-----------------------------------|
|---------9\------------7-----5-|--------10-----7-----10---9\-------|
|---------7\------------5-----3-|---------8-----5------8---7\-------|
|--0--0-0-----------0-0---0-0---|---0--0----0-0---0-0---------------|


                                                                To Coda
                  D5       C5           F5     G5          F5 E5
   ~~~~~~~~~~~~~~~~~~~~~~          ~~                 ~~~
   H.                +E     S  S   Q.           S  S  Q.          S  S
|--------------------------------|---------------------------------------||
|-10----------------(10)---10h12-|-8-----------10h12---------------------||
|--------------------------------|-------------------11----------11h12---||
|--------------------------------|---------------------------------------||
|--------------------------------|---------------------------------------||
|--------------------------------|---------------------------------------||
|
|  ~~~~~~~~~~~~~~~~~~~~~~          ~~                 ~~~
|  H.                +E     S  S   Q.           S  S  Q.          S  S
|--------------------------------|---------------------------------------||
|--------------------------------|---------------------------------------||
|-11----------------(11)---11h12-|-9-----------11h12---------------------||
|--------------------------------|-------------------12----------12h14---||
|--------------------------------|---------------------------------------||
|--------------------------------|---------------------------------------||
|
|  PM---|     PM|     PM-|         PM-|    PM|        PM-|
|  E  S S Q   S S E   S  S  E      S  S  E S S  E     S  S  E Q
|--------------------------------|---------------------------------------||
|--------------------------------|---------------------------------------||
|--------------------------------|---------------------------------------||
|---------9\------7---------5----|------10-----12----------10-9\---------||
|---------7\------5---------3----|-------8-----10-----------8-7\---------||
|--0--0-0-----0-0-----0--0-------|-0--0----0-0--------0--0---------------||


 Interlude
  E5
  Gtr I
  E  E  Q       H              W
  |  |
  /  /

  Gtr IV
                    ~~             ~~              ~~
  E  E  E   E  +E   Q    E    +E   Q   E  +E    E  Q
|--------------------------|--------------------------|
|---10-12-/13-(13)-12--/13-|-(13)-12--10-(10)-/13-12--|
|--------------------------|--------------------------|
|--------------------------|--------------------------|
|--------------------------|--------------------------|
|--------------------------|--------------------------|
|
| Gtr III
|                   ~~             ~~              ~~
| E  E  E   E  +E   Q    E    +E   Q   E  +E    E  Q
|--------------------------|--------------------------|
|--------------------------|--------------------------|
|----7--9-/10-(10)--9--/10-|-(10)--9---7--(7)-/10--9--|
|--------------------------|--------------------------|
|--------------------------|--------------------------|
|--------------------------|--------------------------|
|
| Gtr II
|                   ~~             ~~              ~~
| E  E  E   E  +E   Q    E    +E   Q   E  +E    E  Q
|--------------------------|--------------------------|
|--------------------------|--------------------------|
|--------------------------|--------------------------|
|----7--9-/10-(10)--9--/10-|-(10)--9---7--(7)-/10--9--|
|--------------------------|--------------------------|
|--------------------------|--------------------------|


  E  E  Q       H              W
  |  |
  /  /

                    ~~                ~~~
  E  E  E   E  +E   Q    E    +E   E  H.
|--------------------------|----------------|
|---10-12-/13-(13)-12--/15-|-(15)-13-12-----|
|--------------------------|----------------|
|--------------------------|----------------|
|--------------------------|----------------|
|--------------------------|----------------|
|
|                   ~~                ~~~
| E  E  E   E  +E   Q    E    +E   E  H.
|--------------------------|----------------|
|--------------------------|----------------|
|----7--9-/10-(10)--9--/12-|-(12)-10--9-----|
|--------------------------|----------------|
|--------------------------|----------------|
|--------------------------|----------------|
|
|                   ~~                ~~~
| E  E  E   E  +E   Q    E    +E   E  H.
|--------------------------|----------------|
|--------------------------|----------------|
|--------------------------|----------------|
|----7--9-/10-(10)--9--/12-|-(12)-10--9-----|
|--------------------------|----------------|
|--------------------------|----------------|


  E5
  Gtr I
  E E Q       H             W
  | |
  / /

  Gtr IV
                 ~             ~            ~
  E E E   E  +E  Q    E    +E  Q  E +E    E Q
|---5-7--/8--(8)-7---/8-|--(8)-7--5-(5)--/8-7--|
|---7-8-/10-(10)-8--/10-|-(10)-8--7-(7)-/10-8--|
|-----------------------|----------------------|
|-----------------------|----------------------|
|-----------------------|----------------------|
|-----------------------|----------------------|
|
| Gtr III
|                ~             ~            ~
| E E E   E  +E  Q    E    +E  Q  E +E    E Q
|-----------------------|----------------------|
|-----------------------|----------------------|
|---7-9-/10-(10)-9--/10-|-(10)-9--7-(7)-/10-9--|
|-----------------------|----------------------|
|-----------------------|----------------------|
|-----------------------|----------------------|
|
| Gtr II
|                ~             ~            ~
| E E E   E  +E  Q    E    +E  Q  E +E    E Q
|-----------------------|----------------------|
|-----------------------|----------------------|
|-----------------------|----------------------|
|---7-9-/10-(10)-9--/10-|-(10)-9--7-(7)-/10-9--|
|-----------------------|----------------------|
|-----------------------|----------------------|


  E E Q       H             H         Q  Q
  | |                                    |
  / /                                    o

                 ~                ~~
  E E E   E  +E  Q    E    +E   E H.
|---5-7--/8--(8)-7--/10-|-(10)--8-7---------||
|---7-8-/10-(10)-8--/12-|-(12)-10-8---------||
|-----------------------|-------------------||
|-----------------------|-------------------||
|-----------------------|-------------------||
|-----------------------|-------------------||
|
|                ~                ~~
| E E E   E  +E  Q    E    +E   E H.
|-----------------------|-------------------||
|-----------------------|-------------------||
|---7-9-/10-(10)-9--/12-|-(12)-10-9---------||
|-----------------------|-------------------||
|-----------------------|-------------------||
|-----------------------|-------------------||
|
|                ~                ~~
| E E E   E  +E  Q    E    +E   E H.
|-----------------------|-------------------||
|-----------------------|-------------------||
|-----------------------|-------------------||
|---7-9-/10-(10)-9--/12-|-(12)-10-9---------||
|-----------------------|-------------------||
|-----------------------|-------------------||


   Breakdown
    E5                         F5G5  E5                         G5F5
    Gtr I
                             PM                               PM
    H     H       +H     +E  E E E   H     H       +H     +E  E E E
||--------0-----|-(0)----(0)-------|-------0-----|-(0)----(0)---------||
||o-------0-----|-(0)----(0)-------|-------0-----|-(0)----(0)--------o||
||--------------|------------------|-------------|--------------------||
||--------------|------------------|-------------|--------------------||
||o-2----(2)----|-(2)----(2)---3s5-|-2----(2)----|-(2)----(2)---5s3--o||
||--0----(0)----|-(0)----(0)-0-1s3-|-0----(0)----|-(0)----(0)-0-3s1---||


    N.C.
    PM
    E E E  E  +E  Q   E    +E  Q  E +E   E Q
||----------------------|---------------------|
||o---------------------|---------------------|
||----------------------|---------------------|
||----7-9-10-(10)-9--10-|-(10)-9--7-(7)-10-9--|
||o---------------------|---------------------|
||--0-------------------|---------------------|


  PM
  E E E  E  +E  Q  E   +E   E H.
|--------------------|---------------||
|--------------------|--------------o||
|------------------7-|-(7)-----------||
|---7-9-10-(10)-9----|-----10-9------||
|--------------------|--------------o||
|-0------------------|---------------||


   Verse
    N.C.(E)                                 F5G5/DN.C.(E)
    Gtr I
    PM------------------------------------|
    E S S E E S S E E S S   E E S S E E S S E E
||------------------------|---------------------|
||o-----------------------|---------------------|
||------------------------|---------------------|
||------------------------|-----------------3-5-|
||o-----------------------|-----------------3-5-|
||--0-0-0-0-0-0-0-0-0-0-0-|-0-0-0-0-0-0-0-0-----|


                                D.S.S. al Coda
                                          G5F5/C
  PM------------------------------------|
  E S S E E S S E E S S   E E S S E E S S E E
|-----------------------|-----------------------||
|-----------------------|----------------------o||
|-----------------------|-----------------------||
|-----------------------|-----------------5-3---||
|-----------------------|-----------------5-3--o||
|-0-0-0-0-0-0-0-0-0-0-0-|-0-0-0-0-0-0-0-0-------||


 Out-Chorus
  &
  E     E5(type 2)E     D5    E   C5
  Gtr I
  E S S  Q         S  S  E    S S E
  | | |  |         |  |  |    | | |
  o / /  /         o  /  /    o / /

  Gtr V
  E S S  S  S S S  S  S  S  S E   S S
|-------------------------------------|
|-------12-12-----10-10---------------|
|---9-9-------9-9-------11-11-----9-9-|
|-------------------------------------|
|-------------------------------------|
|-------------------------------------|
|
| Gtr IV
| E S S  S  S S S  S  S  S  S E   S S
|-------------------------------------|
|-------------------------------------|
|-------12-12-----11-11---------------|
|---9-9-------9-9-------10-10-----9-9-|
|-------------------------------------|
|-------------------------------------|
|
| Gtrs II, III
| ~~~~~~~~~~~~~~~~~~~~~~~~~~~~~~~~~~~~~
| W
|-------------------------------------|
|-------------------------------------|
|-9-----------------------------------|
|-9-----------------------------------|
|-------------------------------------|
|-------------------------------------|


  E      F5  E     D5    E     F5    E5(type 2)
   S   S E    S  S  E     S  S  E     Q
   |   | |    |  |  |     |  |  |     |
   o   / /    o  /  /     o  /  /     /

                                            ~~
   S   S S S  S  S  S  S  S  S  S  S  S  S  E
|------------------------------------10s12-10-|
|-12--12-----10-10-------13-13----------------|
|--------9-9-------11-11-------11-11----------|
|---------------------------------------------|
|---------------------------------------------|
|---------------------------------------------|
|
|                                           ~~
|  S   S S S  S  S  S  S  S  S  S  S  S  S  E
|---------------------------------------------|
|---------------------------------------------|
|-12--12-----11-11-------14-14-------14h16-14-|
|--------9-9-------10-10-------12-12----------|
|---------------------------------------------|
|---------------------------------------------|
|
|~~~~~~~~~~~~~~~~~~~~~~~~~~~
| +H                      Q           E     E
|---------------------------------------------|
|------------------------12----------12----15-|
|-(9)--------------------12----------12h===16-|
|-(9)-----------------------------------------|
|---------------------------------------------|
|---------------------------------------------|


  E        E5(type 2)E     D5    E   C5
    E  S S  Q         S  S  E    S S E
    |  | |  |         |  |  |    | | |
    o  / /  /         o  /  /    o / /

    ~~~~
   +E  S S  S  S S S  S  S  S  S E   S S
|-(10)-----------------------------------|
|----------12-12-----10-10---------------|
|------9-9-------9-9-------11-11-----9-9-|
|----------------------------------------|
|----------------------------------------|
|----------------------------------------|
|
|   ~~~~
|  +E  S S  S  S S S  S  S  S  S E   S S
|----------------------------------------|
|----------------------------------------|
|-(14)-----12-12-----11-11---------------|
|------9-9-------9-9-------10-10-----9-9-|
|----------------------------------------|
|----------------------------------------|
|
|   ~~~~~~~~~~~~~~~~~~~~~~~~~~~~~~~~~~~~~~
|   W
|----------------------------------------|
|--13------------------------------------|
|--14------------------------------------|
|----------------------------------------|
|----------------------------------------|
|----------------------------------------|


  E       F5  E     G5    E     F5   E5(type 2)
    S   S E    S  S  E     S  S  E    Q
    |   | |    |  |  |     |  |  |    |
    o   / /    o  /  /     o  /  /    /

                                              ~
    S   S S S  S  S  S  S  S  S  S S  S  S  S S
|-------------------------12p10p=8s7-10p=8p=7-7--|
|--12--12-----10-10------------------------------|
|---------9-9-------11-11------------------------|
|------------------------------------------------|
|------------------------------------------------|
|------------------------------------------------|
|
|                                             ~
|   S   S S S  S  S  S  S  S  S  S S  S  S  S S
|------------------------------------------------|
|------------------------------------------------|
|--12--12-----11-11-------14p12p10s9-12p10p=9-9--|
|---------9-9-------10-10------------------------|
|------------------------------------------------|
|------------------------------------------------|
|
|~~~~~~
|  +H                      E     E    E     E
|------------------------------------------------|
|-(13)--------------------15----13---12h===13----|
|-(14)--------------------16----14---12h===14----|
|------------------------------------------------|
|------------------------------------------------|
|------------------------------------------------|


  E       E5(type 2)  E     D5    E   C5
   E  S S  Q           S  S  E    S S E
   |  | |  |           |  |  |    | | |
   o  / /  /           o  /  /    o / /

   ~~~
  +E  S S  S  S  S  S  S  S  S  S E   S S
|-(7)-------------------------------------|
|---------12-12-------10-10---------------|
|-----9-9--------9--9-------11-11-----9-9-|
|-----------------------------------------|
|-----------------------------------------|
|-----------------------------------------|
|
|  ~~~
| +E  S S  S  S  S  S  S  S  S  S E   S S
|-----------------------------------------|
|-----------------------------------------|
|-(9)-----12-12-------11-11---------------|
|-----9-9--------9--9-------10-10-----9-9-|
|-----------------------------------------|
|-----------------------------------------|
|
|  ~~~                 ~~~~~~~~~~~~~~~~~~~~
|  Q.            S  S  H
|-----------------------------------------|
|-10------------12h13-12------------------|
|-11------------12h14-12------------------|
|-----------------------------------------|
|-----------------------------------------|
|-----------------------------------------|


  E       F5  E     D5    E     F5    E5(type 2)
    S   S E    S  S  E     S  S  E      Q
    |   | |    |  |  |     |  |  |      |
    o   / /    o  /  /     o  /  /      /

                                               ~~~
    S   S S S  S  S  S  S  S  S  S  S   S   S  E
|--------------------------------------10s=12-10-----|
|--12--12-----10-10-------13-13----------------------|
|---------9-9-------11-11-------11-11----------------|
|----------------------------------------------------|
|----------------------------------------------------|
|----------------------------------------------------|
|
|                                              ~~~
|   S   S S S  S  S  S  S  S  S  S  S   S   S  E
|----------------------------------------------------|
|----------------------------------------------------|
|--12--12-----11-11-------14-14--------14h=16-14-----|
|---------9-9-------10-10-------12-12----------------|
|----------------------------------------------------|
|----------------------------------------------------|
|
|~~~~~~~~~~~~~~~~~~~~~~~~~~~~~~~~~~~~~~~~~~
|  +H.                                 +E      S  S
|----------------------------------------------------|
|-(12)--------------------------------(12)----12h13--|
|-(12)--------------------------------(12)----12h14--|
|----------------------------------------------------|
|----------------------------------------------------|
|----------------------------------------------------|


  E        E5(type 2)E     D5    E      C5
    E  S S  Q         S  S  E      S  S  E
    |  | |  |         |  |  |      |  |  |
    o  / /  /         o  /  /      o  /  /

    ~~~~
   +E  S S  S  S S S  S  S  S  S   E     S  S
|-(10)----------------------------------------|
|----------12-12-----10-10--------------------|
|------9-9-------9-9-------11-11---------9--9-|
|---------------------------------------------|
|---------------------------------------------|
|---------------------------------------------|
|
|   ~~~~
|  +E  S S  S  S S S  S  S  S  S   E     S  S
|---------------------------------------------|
|---------------------------------------------|
|-(14)-----12-12-----11-11--------------------|
|------9-9-------9-9-------10-10---------9--9-|
|---------------------------------------------|
|---------------------------------------------|
|
|   ~~~~~~~~~~~~~~~~~~~~~~~~~~~~~~~~~~
|   H.                            +E     S  S
|---------------------------------------------|
|--10----------------------------(10)---10h12-|
|--11----------------------------(11)---11h12-|
|---------------------------------------------|
|---------------------------------------------|
|---------------------------------------------|


  E      F5  E     G5    E     F5   E5(type 2)
   S   S E    S  S  E     S  S  E    Q
   |   | |    |  |  |     |  |  |    |
   o   / /    o  /  /     o  /  /    /

                                              ~~
   S   S S S  S  S  S  S  S  S  S S  S  S  S  S
|------------------------12p10p=8s7-10p=8p=7--7--||
|-12--12-----10-10-------------------------------||
|--------9-9-------11-11-------------------------||
|------------------------------------------------||
|------------------------------------------------||
|------------------------------------------------||
|
|                                             ~~
|  S   S S S  S  S  S  S  S  S  S S  S  S  S  S
|------------------------------------------------||
|------------------------------------------------||
|-12--12-----11-11-------14p12p10s9-12p10p=9--9--||
|--------9-9-------10-10-------------------------||
|------------------------------------------------||
|------------------------------------------------||
|
|  ~~~                    ~~~
|  Q.               S  S  Q.               S  S
|------------------------------------------------||
|--8---------------10h12-------------------------||
|--9---------------11h12-11---------------11h12--||
|------------------------12---------------12h14--||
|------------------------------------------------||
|------------------------------------------------||


   Outro
    N.C.
    Gtr V
     ~~~
    +E  S S  S  S S S  S  S  S  S E S S
||--(7)---------------------------------|
||o---------12-12-----10-10-------------|
||------9-9-------9-9-------11-11---9-9-|
||--------------------------------------|
||o-------------------------------------|
||--------------------------------------|
|
|   Gtr IV
|    ~~~
|   +E  S S  S  S S S  S  S  S  S E S S
||--------------------------------------|
||o-------------------------------------|
||--(9)-----12-12-----11-11-------------|
||------9-9-------9-9-------10-10---9-9-|
||o-------------------------------------|
||--------------------------------------|


                                           ~~
   S  S S S  S  S  S  S  S  S  S  S  S  S  E
|-----------------------------------10s12-10-|
|-12-12-----10-10-------13-13----------------|
|-------9-9-------11-11-------11-11----------|
|--------------------------------------------|
|--------------------------------------------|
|--------------------------------------------|
|
|                                          ~~
|  S  S S S  S  S  S  S  S  S  S  S  S  S  E
|--------------------------------------------|
|--------------------------------------------|
|-12-12-----11-11-------14-14-------14h16-14-|
|-------9-9-------10-10-------12-12----------|
|--------------------------------------------|
|--------------------------------------------|


    ~~~~
   +E  S S  S  S S S  S  S  S  S E S S
|-(10)---------------------------------|
|----------12-12-----10-10-------------|
|------9-9-------9-9-------11-11---9-9-|
|--------------------------------------|
|--------------------------------------|
|--------------------------------------|
|
|   ~~~~
|  +E  S S  S  S S S  S  S  S  S E S S
|--------------------------------------|
|--------------------------------------|
|-(14)-----12-12-----11-11-------------|
|------9-9-------9-9-------10-10---9-9-|
|--------------------------------------|
|--------------------------------------|


                                           ~
   S  S S S  S  S  S  S  S  S  S S  S  S S S
|-----------------------12p10p=8s7-10p=8p7-7--||
|-12-12-----10-10----------------------------o||
|-------9-9-------11-11-----------------------||
|---------------------------------------------||
|--------------------------------------------o||
|---------------------------------------------||
|
|                                          ~
|  S  S S S  S  S  S  S  S  S  S S  S  S S S
|---------------------------------------------||
|--------------------------------------------o||
|-12-12-----11-11-------14p12p10s9-12p10p9-9--||
|-------9-9-------10-10-----------------------||
|--------------------------------------------o||
|---------------------------------------------||



Duration Legend
---------------
W - whole; H - half; Q - quarter; E - 8th; S - 16th; T - 32nd; X - 64th; a - acciaccatura
+ - note tied to previous; . - note dotted; .. - note double dotted
Uncapitalized letters represent notes that are staccato (1/2 duration)
Irregular groupings are notated above the duration line
Duration letters will always appear directly above the note/fret number it represents the
duration for.  Duration letters with no fret number below them represent rests.  Multi-
bar rests are notated in the form Wxn, where n is the number of bars to rest for.  Low
melody durations appear below the staff

Tablature Legend
----------------
 h   - hammer-on
 p   - pull-off
 b   - bend
 pb  - pre-bend
 r   - bend release (if no number after the r, then release immediately)
 /\  - slide into or out of (from/to "nowhere")
 s   - legato slide
 S   - shift slide
 - natural harmonic
[n]  - artificial harmonic
n(n) - tapped harmonic
 ~   - vibrato
 tr  - trill
 T   - tap
 TP  - trem. picking
 PM  - palm muting
\n/  - tremolo bar dip; n = amount to dip
 \n  - tremolo bar down
 n/  - tremolo bar up
/n\  - tremolo bar inverted dip
 =   - hold bend; also acts as connecting device for hammers/pulls
 <> - volume swell (louder/softer)
 x   - on rhythm slash represents muted slash
 o   - on rhythm slash represents single note slash

Misc Legend
-----------
 |  - bar
||  - double bar
||o - repeat start
o|| - repeat end
*|  - double bar (ending)
 :  - bar (freetime)
 $  - Segno
 &  - Coda
Tempo markers -  = BPM(8/16=s8/s16), where s8 = swing 8ths, s16 = swing 16ths

Добавлено: 12.06.2012
Другие материалы по этой песне:

Страница создана 02.04.2012
http://primanota.ru/demons-and-wizards/the-whistler-chords.htm
Привет, Гость.
Предлагаем пройти революционный курс по гитаре.
Подарок от PrimaNota.Ru, забирай!