PrimaNota.ru - самый крупный в мире бесплатный архив песенных текстов, аккордов, табулатур и нот


Deicide - Standing In The Flames - аккорды и текст, таба, видео

Регистрация Запомнить меня
Войти через:  Facebook Google Twitter Vk Yandex Mail.ru

Deicide - Standing In The Flames - аккорды и текст, таба, видео

Печатать
Просмотров: 165
Уроки эстрадного вокала в Санкт-Петербурге
Standing In The Flames
Deicide
               DEICIDE - STANDING IN THE FLAMES
               From the Album INSINERATEHYMN
               Copyright 2000 ROADRUNNER RECORDS
               Version 1.0 - SEPTEMBER 2001

Transcribed by: death8699

For Questions, Comments, Newest Version, or Corrections contact
death8699: at unhollowed@aol.com

Check Out Death Warp, With More Transcriptions On It:


Tablature Notation
------------------
.  - palm mute         /  - slide up to
  - slide down to              ~  - vibrato
h  - hammer on         b  - bend
p  - pull off          Suffixes for bend
ph - pinch harmonic             f - full bend    h - half bend
  - see comment                r - release      t - tap bend
X  - percussion mute            ~ - vibrato bend
@  - slight palm mute           () - ghost note, sustained note

Tune Gtr to D

STANDING IN THE FLAMES

Intro
|----------------------------------------------------------------|
|----------------------------------------------------------------|
|----------------------------------------------------------------|
|---5-5---5-5---5-5---5-5---5---5---3-----3-----3-----3----3---3-|
|---3-3---3-3---3-3---3-3---3---3---1-----1-----1-----1----1---1-|
|-2-----2-----2-----2-----2---2---0---0-0---0-0---0-0---0-0--0---|
| .     .     .     .     .   .   .   . .   . .   . .   . .  .
|
|                                1tx
|--------------------------------------------------------------|
|--------------------------------------------------------------|
|--------------------------------------------------------------|
|---5-5---5-5---5-5---5-5---5---5---3-----3-----3-----3----3---|
|---3-3---3-3---3-3---3-3---3---3---1-----1-----1-----1----1---|
|-2-----2-----2-----2-----2---2---0---0-0---0-0---0-0---0-0----|
  .     .     .     .     .   .   .   . .   . .   . .   . .


Riff A                                   4tx
|----------------------------------------------------------------------|
|----------------------------------------------------------------------|
|----------------------------------------------------------------------|Gtr
|----------2222------------------------------2222----------------------| I
|--------------33331111111111111111--------------3333------------------|
|-00003333--------------------------00003333----------1111111111111111-|
| @@@@@@@@ @@@@@@@@@@@@@@@@@@@@@@@@ @@@@@@@@ @@@@@@@@ @@@@@@@@@@@@@@@@
|
|
|Riff A.1                                  2tx
|------------------------------------------------------------------------|
|------------------------------------------------------------------------|
|----------4444-------------------------------4444-----------------------|Gtr
|---------------55553333333333333333---------------5555------------------| 
II
|-22225555---------------------------22225555-----------3333333333333333-|
|------------------------------------------------------------------------|
  @@@@@@@@ @@@@ @@@@@@@@@@@@@@@@@@@@ @@@@@@@@@ @@@@ @@@@ @@@@@@@@@@@@@@@


Riff B                                  1tx
|------------------------------------------------------------|
|------------------------------------------------------------|
|------------------------------------------------------------|
|------------------------------------------5-5-5-5-------4-4-|
|-2-2-2-2-5-5-2222222222222222-2-2-2-2-5-5-3-3-3-3-5-5-5-2-2-|
|-0-0-0-0-3-3------------------0-0-0-0-3-3---------3-3-3-----|
| . . . . . . @@@@@@@@@@@@@@@@ . . . . . . . . . . . . . . .
|
|
|Riff B.1                                3tx
|-------------------------------------------------------------|
|-------------------------------------------------------------|
|-------------------------------------------------------------|
|----------------------44444444-------------5-5-5-5-------4-4-|
|-2-2-2-2-5-5-22222222----------2-2-2-2-5-5-3-3-3-3-5-5-5-2-2-|
|-0-0-0-0-3-3-------------------0-0-0-0-3-3---------3-3-3-----|
  . . . . . . @@@@@@@@ @@@@@@@@ . . . . . . . . . . . . . . .


Riff A 2tx
Riff A + A.1 1tx


Riff A.2                                 2tx
|----------------------------------------------------------------------|
|----------------------------------------------------------------------|
|----------------------------------------------------------------------|Gtr
|----------2222------------------------------2222----------------------| I
|--------------33331111111111111111---------------3333-3-3-3-3-3-3-3-3-|
|-00003333--------------------------00003333-----------1-1-1-1-1-1-1-1-|
| @@@@@@@@ @@@@@@@@@@@@@@@@@@@@@@@@ @@@@@@@@ @@@@ @@@@ . . . . . . . .
|
|
|                                          2tx
|------------------------------------------------------------------------|
|------------------------------------------------------------------------|
|----------4444-------------------------------4444-----------------------|Gtr
|---------------55553333333333333333---------------5555------------------| 
II
|-22225555---------------------------22225555------------3-3-3-3-3-3-3-3-|
|--------------------------------------------------------1-1-1-1-1-1-1-1-|
  @@@@@@@@ @@@@ @@@@@@@@@@@@@@@@@@@@ @@@@@@@@@ @@@@ @@@@ . . . . . . . .


Riff C                                 2tx
|-----------------------------------------------------------|
|-----------------------------------------------------------|
|-----------------------------------------------------------|
|-5-5-5-5-----4-4-----------------5-5-5-5-----4-4-4-4-4-4-4-|
|-3-3-3-3-5-5-2-2-2-2-2-2-2-2-2-2-3-3-3-3-5-5-2-2-2-2-2-2-2-|
|---------3-3-----0-0-0-0-0-0-0-0---------3-3---------------|
| . . . . . . . . . . . . . . . . . . . . . . . . . . . . .
|
|
|Riff C.1                              2tx
|-----------------------------------------------------------|
|-----------------------------------------------------------|
|-----------------------------------------------------------|
|-----------------------------------------------------------|
|-3333------2222-2-2-2-2-2-2-2-2-3333------2222222222222222-|
|------3333------0-0-0-0-0-0-0-0------3333------------------|
  .... .... .... . . . . . . . . .... .... ................


Intro
Riff A 2tx
Riff A + A.1 2tx
Riff B 1tx
Riff B.1 3tx
Riff A 2tx
Riff A + A.2 2tx
Riff C 2tx
Riff C.1 1tx


Riff C.2                                   1tx
|---------------------------------------------------------------|
|---------------------------------------------------------------|
|---------------------------------------------------------------|
|-----------------------------------------------4-4-4-4-4-4-4-4-|
|-3333------2222-2-2-2-2-2-2-2-2-3333------2222-2-2-2-2-2-2-2-2-|
|------3333------0-0-0-0-0-0-0-0------3333----------------------|
  .... .... .... . . . . . . . . .... .... .... . . . . . . . .


Intro
End.

Check Out Death Warp, With More Transcriptions On It:
Добавлено: 30.11.2013
Другие материалы по этой песне:

Страница создана 24.03.2012
http://primanota.ru/deicide/standing-in-the-flames-chords.htm
Привет, Гость.
Предлагаем пройти революционный курс по гитаре.
Подарок от PrimaNota.Ru, забирай!