PrimaNota.ru - самый крупный в мире бесплатный архив песенных текстов, аккордов, табулатур и нот


Deicide - To Be Dead - аккорды и текст, таба, видео

Регистрация Запомнить меня
Войти через:  Facebook Google Twitter Vk Yandex Mail.ru

Deicide - To Be Dead - аккорды и текст, таба, видео

Печатать
Просмотров: 145
To Be Dead
Deicide
Song: To Be Dead
Artist: Deicide
Album: Once Upon the Cross (1995)

Tabbed by Chris Rezendes (dudemcrude@yahoo.com)

Tuning: Balf step down

Notation Key
v: vibrato
t: tremolo bar
^: bend
.: palm mute
~: trill
p: pull-off
h: hammer-on
x: ghost note
/: slide up
: slide down



Open with this-
D|-------|
A|-------|
E|--10/--|

Riff 1 x8
e|-----------------------------------------------|
B|-----------------------------------------------|
G|-----------------------------------------------|
D|-----------------------------------------------|
A|----------111---------222-333-----111----------|
E|--000-222-----000-111---------222-----222-333--|

Riff 2 x8
e|---------------------------|
B|---------------------------|
G|---------------------------|
D|---------------------------|
A|------3h4-2h3-----2---1h2--|
E|--3-4---------1-2---1------|

Riff 2B x4
e|-------------------------------|
B|-------------------------------|
G|--------------------------0h1--|
D|-------------------------------|
A|------3h4-2h3-----2---1h2------|
E|--3-4---------1-2---1----------|

Repeat Riff 2 x8
Repeat Riff 2B x4

Riff 3 x6
e|-----------------------------------------------|
B|-----------------------------------------------|
G|-----------------------------------------------|
D|----------3---------3---------7---------8------|
A|--2-----3---2-----3---3-4---6-----6---7-----7--|
E|----1-2-------1-2---------5-----5---6-----6----|

Riff 3 (the way I tabbed it out above is exactly how it's played, but it's kind of confusing, so I'll break it down for you here)
e|-------------|-------------|-------------|-----------------|
B|-------------|-------------|-------------|-----------------|
G|-------------|-------------|-------------|-----------------|
D|----------3--|----------3--|----------7--|----------8------|
A|--2-----3----|--2-----3----|--3-4---6----|----6---7-----6--|
E|----1-2------|----1-2------|------5------|--5---6-----5----|

Repeat Riff 1 x8
Repeat Riff 2 x8
Repeat Riff 2B x4
Добавлено: 07.01.2014
Другие материалы по этой песне:

Страница создана 10.04.2012
http://primanota.ru/deicide/to-be-dead-chords.htm
Привет, Гость.
Предлагаем пройти революционный курс по гитаре.
Подарок от PrimaNota.Ru, забирай!