PrimaNota.ru - самый крупный в мире бесплатный архив песенных текстов, аккордов, табулатур и нот


Deicide - Apocalyptic Fear - текст песни, таба, видео

Регистрация Запомнить меня
Войти через:  Facebook Google Twitter Vk Yandex Mail.ru

Deicide - Apocalyptic Fear - текст песни, таба, видео

Печатать
Просмотров: 144
DEICIDE-APOCALYTIC FEAR
FROM THE ALBUM INSINERATEHYMN


Tune to Eb
Intro
Riff A:
Eb|---------------------------------|
Bb|---------------------------------|
Gb|---------------------------------|
Db|-3-5-4-3-5-4-5-6-7-6-3-5-4-5-6-5-|
Ab|-3-5-4-3-5-4-5-6-7-6-3-5-4-5-6-5-|
Eb|-1-3-2-1-3-2-3-4-5-4-1-3-2-3-4-3-|

Play Riff A once

Riff B:
Eb|--------------------------------------------------------|
Bb|--------------------------------------------------------|
Gb|--------------------------------------------------------|
Db|--------------------------------------------------------|
Ab|---------5---4-5--------5---4-3--------5---4-5--------5-|
Eb|-000000003-0-2-3000000003-0-2-1000000003-0-2-3000000003-|
    ......... . . .......... . . .......... . . .........
Play Riff B once

Riff C:
Eb|--------------------------------------|
Bb|--------------------------------------|
Gb|--------------------------------------|
Db|--------------------------------------|
Ab|--------------------------------------|
Eb|-000022221111000022221111222233334444-|
    ....................................
Play Riff C once

Play Riff B.1
Ab|-----5---4-5--------5---4-3--------5---4-5--------5-|
Eb|-00003-0-2-3000000003-0-2-1000000003-0-2-3000000003-|
    ..... . . .......... . . .......... . . .........
Play Riff C
Play Riff B.1
Play Riff C

Riff D:
Eb|-----------------------------------------------------|cont.>
Bb|-----------------------------------------------------|
Gb|-----------------------------------------------------|
Db|-----------------------------------------------------|
Ab|-----5---4-5--------5---4-3--------5---4-5--------3--|
Eb|-00003-0-2-3000000003-0-2-1000000003-0-2-3000000001--|
    ..... . . .......... . . .......... . . .........
Eb-------------------------------|
Bb-------------------------------|
Gb-------------------------------|
Db-------------------------------|
Ab-5-4-3-5-4-5-6-7-6-3-5-4-5-6-5-|
Eb-3-2-1-3-2-3-4-5-4-1-3-2-3-4-3-|

Play Riff D once

Riff E.1:
Eb|--------------------------------------------------|
Bb|--------------------------------------------------|
Gb|--------------------------------------------------|
Db|--------------------------------------------------|
Ab|---------6666--------6666--------6666--------6666-|
Eb|-44443333----44443333----44443333----44443333-----|
    ........    ........    ........    ........
Riff E.2:
Eb|--------------------------------------------------|
Bb|--------------------------------------------------|
Gb|--------------------------------------------------|
Db|---------6666--------6666--------6666--------6666-|
Ab|-44443333----44443333----44443333----44443333-----|
Eb|--------------------------------------------------|
    ........    ........    ........    ........
Riff E.3:
Eb|--------------------------------------------------|
Bb|--------------------------------------------------|
Gb|---------6666--------6666--------6666--------6666-|
Db|-44443333----44443333----44443333----44443333-----|
Ab|--------------------------------------------------|
Eb|--------------------------------------------------|
Riff E.4
Eb|--------------------------------------------------|
Bb|---------6666--------6666--------6666--------6666-|
Gb|-44443333----44443333----44443333----44443333-----|
Db|--------------------------------------------------|
Ab|--------------------------------------------------|
Eb|--------------------------------------------------|

Play Riff E.1
Play Riff E.2
Play Riff E.3
Play Riff E.4

Riff F:
Eb|-------------------------------------------------|
Bb|-------------------------------------------------|continued>
Gb|-------------------------------------------------|
Db|-------------------------------------------------|
Ab|-------5---4/5------5---4\3------5---4/5------5--|
Eb|-0000003-0-3/30000003-0-2\10000003-0-2/30000003--|
    ......  .    ......  .    ......  .    ......
Eb----------------------------------------------------|
Bb----------------------------------------------------|
Gb----------------------------------------------------|
Db----------------------------------------------------|
Ab----------------------------------5-3-4-5-3-5-4-6-5-|
Eb-00002222111100002222111122223333-3-1-2-3-1-3-2-4-3-|
   ................................
Play Riff F twice

Riff G:
Eb|--------------------------------------|
Bb|--------------------------------------|
Gb|--------------------------------------|
Db|-------7-------5-------2--------------|
Ab|-------7-------5-------2--------------|
Eb|-0-0-0-5-0-0-0-3-0-0-0-0-0-0-0-0-0-0--|
    . . .   . . .   . . .   . . . . . .
Play Riff G 4 times

Play Riff B
Play Riff C
Play Riff B.1
Play Riff C
Play Riff B.1
Play Riff C
Play Riff D
Play Riff E.1
Play Riff E.2
Play Riff E.3
Play Riff E.4

Riff H:
    |3| |3|       |3| |3|       |3| |3|       |3| |3|
Eb|-----------------------------------------------------|
Bb|-----------------------------------------------------|continued>
Gb|-----------------------------------------------------|
Db|--------5---4/5-------5---4\3-------5---4/5-------5--|
Ab|--------3---2/3-------3---2\1-------3---2/3-------3--|
Eb|-000-000--0----000-000--0----000-000--0----000-000---|
    ... ...  .    ... ...  .    ... ...  .    ... ...
Eb|----------------------------------------------------|
Bb|----------------------------------------------------|
Gb|----------------------------------------------------|
Db|----------------------------------------------------|
Ab|----------------------------------5-3-4-5-3-5-4-6-5-|
Eb|-00002222111100002222111122223333-3-1-2-3-1-3-2-4-3-|
    ................................
Play Riff H twice

Play Riff G 4 times
Play Riff B
Play Riff C
Play Riff B.1
Play Riff C
Play Riff B.1
Play Riff C
Play Riff D
Добавлено: 07.04.2012
Другие материалы по этой песне:

Страница создана 08.03.2012
http://primanota.ru/deicide/apocalyptic-fear-chords.htm
Привет, Гость.
Предлагаем пройти революционный курс по гитаре.
Подарок от PrimaNota.Ru, забирай!