PrimaNota.ru - самый крупный в мире бесплатный архив песенных текстов, аккордов, табулатур и нот


Def Leppard - Waterloo Sunset - текст песни, бас-таба, видео

Регистрация Запомнить меня
Войти через:  Facebook Google Twitter Vk Yandex Mail.ru

Def Leppard - Waterloo Sunset - текст песни, бас-таба, видео

Печатать
Просмотров: 219
Авторы музыки: Ray Davies
Авторы текста: Ray Davies
Waterloo Sunset - Def leppard
Bass Tab
Tabbed by Johann

This is the Def leppard version of waterloo sunset from the album Yeah!
Original song is by the kinks
(you can chose to play them on different strings if you wish,
i find it fun to play most of the song on just 1 string)

Enjoy...


Intro

g|---------------------------------------------|
d|---------------------------------------------|
a|-14-14-14-14-12-12-12-12-11-11-11-11-9-9-9-9-|
e|---------------------------------------------|

g|---------------------------------||
d|---------------------------------||
a|-7-7-7-7-6-6-6-6-4-4-4-4-2-2-2-2-||
e|---------------------------------||


g|-----------------------------------------------------------------||
d|-----------------------------------------------------------------||
a|-7-7-7-7-7-7-7-7-6-6-6-6-6-6-6-6-4-4-4-4-4-4-4-4-0-0-0-0-0-0-0-0-||
e|-----------------------------------------------------------------||

Verse 1 

Dirty old river...
g|-----------------------------------------------------------------||
d|-----------------------------------------------------------------||
a|-7-7-7-7-7-7-7-7-6-6-6-6-6-6-6-6-4-4-4-4-4-4-4-4-0-0-0-0-0-0-0-0-||
e|-----------------------------------------------------------------|| x2

g|-----------------------------------------------------------------||
d|-----------------------------------------------------------------||
a|-9-9-9-9-9-9-9-9-8-8-8-8-8-8-8-8-7-7-7-7-7-7-7-0-2-2-2-2-2-2-2-2-||
e|-----------------------------------------------------------------||

g|-----------------------------------------------------------------||
d|-----------------------------------------------------------------||
a|-7-7-7-7-7-7-7-7-6-6-6-6-6-6-6-6-4-4-4-4-4-4-4-4-0-0-0-0-0-0-0-0-||
e|-----------------------------------------------------------------||

Chorus

              Everyday i look...
g|---------------------------------------------------------------------------||
d|---------------------------------------------------------------------2---2-||
a|-12-11-x-9---0-9-9-7-7-7-7-6-6-6-6-4-4-4-4-2-2-2-2-2-2-2-0-2-2-2-2-2---2---||
e|---------------------------------------------------------------------------||

g|-------------------------------------------------------------------------------||
d|-------------------------------------------------------------------------------||
a|-12-11-x-9---0-9-9-7-7-7-7-6-6-6-6-4-4-4-4/14-14-14-14-12-12-12-12-11-11-11-11-||
e|-------------------------------------------------------------------------------||

g|-----------------------------------------||
d|-----------------------------------------||
a|-9-9-9-9-7-7-7-7-6-6-6-6-4-4-4-4-2-2-2-2-||
e|-----------------------------------------||

Verse 2 (same structure as verse 1)

Terry meets julie...
g|-----------------------------------------------------------------||
d|-----------------------------------------------------------------||
a|-7-7-7-7-7-7-7-7-6-6-6-6-6-6-6-6-4-4-4-4-4-4-4-4-0-0-0-0-0-0-0-0-||
e|-----------------------------------------------------------------|| x2

g|-----------------------------------------------------------------||
d|-----------------------------------------------------------------||
a|-9-9-9-9-9-9-9-9-8-8-8-8-8-8-8-8-7-7-7-7-7-7-7-0-2-2-2-2-2-2-2-2-||
e|-----------------------------------------------------------------||

g|-----------------------------------------------------------------||
d|-----------------------------------------------------------------||
a|-7-7-7-7-7-7-7-7-6-6-6-6-6-6-6-6-4-4-4-4-4-4-4-4-0-0-0-0-0-0-0-0-||
e|-----------------------------------------------------------------||

Chorus
              Everyday i look...
g|---------------------------------------------------------------------------||
d|---------------------------------------------------------------------2---2-||
a|-12-11-x-9---0-9-9-7-7-7-7-6-6-6-6-4-4-4-4-2-2-2-2-2-2-2-0-2-2-2-2-2---2---||
e|---------------------------------------------------------------------------||

g|-------------------------------------------------------------------------------||
d|-------------------------------------------------------------------------------||
a|-12-11-x-9---0-9-9-7-7-7-7-6-6-6-6-4-4-4-4/14-14-14-14-12-12-12-12-11-11-11-11-||
e|-------------------------------------------------------------------------------||

g|-----------------------------------------||
d|-----------------------------------------||
a|-9-9-9-9-7-7-7-7-6-6-6-6-4-4-4-4-2-2-2-2-||
e|-----------------------------------------||

Verse 3 (has a different first line)


Millions of people...
g|-----------------------------------------------------------------||
d|-----------------------------------------------------------------||
a|-7---------------6---------------4---------------0---------------||
e|-----------------------------------------------------------------||

g|-----------------------------------------------------------------||
d|-----------------------------------------------------------------||
a|-7-7-7-7-7-7-7-7-6-6-6-6-6-6-6-6-4-4-4-4-4-4-4-4-0-0-0-0-0-0-0-0-||
e|-----------------------------------------------------------------||

g|-----------------------------------------------------------------||
d|-----------------------------------------------------------------||
a|-9-9-9-9-9-9-9-9-8-8-8-8-8-8-8-8-7-7-7-7-7-7-7-0-2-2-2-2-2-2-2-2-||
e|-----------------------------------------------------------------||

g|-----------------------------------------------------------------||
d|-----------------------------------------------------------------||
a|-7-7-7-7-7-7-7-7-6-6-6-6-6-6-6-6-4-4-4-4-4-4-4-4-0-0-0-0-0-0-0-0-||
e|-----------------------------------------------------------------||

Outro

g|-------------------------||
d|-------------------------||
a|-14-14-14-14-14-14-14-14-||
e|-------------------------|| (many times)

g|---------------------------------------------||
d|---------------------------------------------||
a|-14-14-14-14-12-12-12-12-11-11-11-11-9-9-9-9-||
e|---------------------------------------------|| (the track fades out)
Добавлено: 30.07.2012
Другие материалы по этой песне:
  • Аккорды и текст

Страница создана 20.03.2012
http://primanota.ru/def-leppard/waterloo-sunset-chords.htm
Привет, Гость.
Предлагаем пройти революционный курс по гитаре.
Подарок от PrimaNota.Ru, забирай!