PrimaNota.ru - самый крупный в мире бесплатный архив песенных текстов, аккордов, табулатур и нот


Def Leppard - Tomorrow - текст песни, таба, видео

Регистрация Запомнить меня
Войти через:  Facebook Google Twitter Vk Yandex Mail.ru

Def Leppard - Tomorrow - текст песни, таба, видео

Печатать
Просмотров: 200
This is Def Leppards Tomorrow which is on "Songs From The Sparkle Lounge" album.
I have just learnt this song myself by ear so it might be wrong.
I can tab out majority of the solo but you will have to work the rest out yourself.
Tuning - Standard (EADGBe)


LEAD

Intro

Alternate Pick - work out timing yourself :)
e|----------------------------|
B|----------------------------|
G|-15-15-15-15-15-15-15-15b17-| x8
D|----------------------------|
A|----------------------------|
E|----------------------------|

Verse
After bass, play

Alternate pick
e|---|
B|---|
G|-3-|

You will have to work out the timing again.

Pre chorus

e|--------------------------------------------------6--4--|
B|--4-3-4--4-3-4--4-3-4--4-3-4--4-3-4--4-3-4--4-3-4---4-4-|
G|-5------5------3------3------5------5------3------------|
D|--------------------------------------------------------|
A|--------------------------------------------------------|
E|--------------------------------------------------------|

Chorus

e|----------------------------------------------------------|
B|---4---6---4----------------------------------------------| x8
G|-3---3---3---3--------------------------------------------|
D|----------------------------------------------------------|
A|----------------------------------------------------------|
E|----------------------------------------------------------|


Intro x 4
Come straight in on Verse
Pre chorus
Chorus

Bridge - Both guitars

e|----------------------------------------------------|
B|----------------------------------------------------|
G|----------------------------------------------------|
D|-101010101010-88-666666-88-101010101010-66-88888888-|
A|-101010101010-88-666666-88-101010101010-66-88888888-|
E|-8-8-8-8-8-8--66-444444-66-8-8-8-8-8-8--44-66666666-|

Solo

e|----------------------------------------------------------|
B|----------------------------------------------------------|
G|-11b12b11-9/11--------------------------------------------|
D|----------------------------------------------------------|
A|----------------------------------------------------------|
E|----------------------------------------------------------|

e|--------------------------|
B|--------------------------|
G|-3/55555-8-5---5-8-5---5~-|
D|-------------8-------8----|
A|--------------------------|
E|--------------------------|

e|-------18----------------------18----16/18----------------|
B|-15h16----15h16----15h16-15h16----15----------------------|
G|----------------17----------------------------------------|
D|----------------------------------------------------------|
A|----------------------------------------------------------|
E|----------------------------------------------------------|

e|-------18----------------------18-------------------------|
B|-15h16----15h16----15h16-15h16----------------------------|
G|----------------17----------------------------------------|
D|----------------------------------------------------------|
A|----------------------------------------------------------|
E|----------------------------------------------------------|
This is the bit that I cant tab. sorry.

Chorus

End on

e|----|
B|----|
G|-8~-|
D|-8~-|
A|-6~-|
E|----|



RHYTHM

Intro

e|---------------------|
B|---------------------|
G|-8~8888----6~6666----|
D|-8~8888-88-6~6666-66-|x4 play 8~
A|-6~6666-88-4~4444-66-|        8~
E|--------66--------44-|        6~

bass on verse

Pre chorus

e|-------------------------------------|
B|-------------------------------------|
G|-55555555-33333333-55555555----------|
D|-55555555-33333333-55555555-66666666-|
A|-33333333-11111111-33333333-66666666-|
E|----------------------------44444444-|

Chorus

e|------------------------------------|
B|------------------------------------|
G|-88888888---------------------------|
D|-88888888-88888888-33333333-66666666| x2
A|-66666666-88888888-33333333-66666666|
E|----------66666666-11111111-44444444|

Intro x2
Dont play in verse
Pre-Chorus
Chorus

Bridge - Both guitars

e|----------------------------------------------------|
B|----------------------------------------------------|
G|----------------------------------------------------|
D|-101010101010-88-666666-88-101010101010-66-88888888-|
A|-101010101010-88-666666-88-101010101010-66-88888888-|
E|-8-8-8-8-8-8--66-444444-66-8-8-8-8-8-8--44-66666666-|

Solo

e|--------------------|
B|--------------------|
G|-888888-------------|
D|-888888-88-66666666-|x2
A|-666666-88-66666666-|
E|--------66-44444444-|

e|----------------------------------------|
B|----------------------------------------|
G|-55555555-33333333-55555555----------8~-|
D|-55555555-33333333-55555555-66666666-8~-|
A|-33333333-11111111-33333333-66666666-6~-|
E|----------------------------44444444----|

Before chorus
e|-------------|
B|-------------|
G|-8~----------|
D|-8~-8~-3~-6~-|
A|-6~-8~-3~-6~-|
E|----6~-1~-4~-|

Chorus

End on

e|----|
B|----|
G|-8~-|
D|-8~-|
A|-6~-|
E|----|

And that is all there is to it. I did this by ear so there may be a few
mistakes. You will need to find the timing yourself. Have fun and keep rocking \m/
Добавлено: 30.08.2013
Другие материалы по этой песне:
  • Аккорды и текст

Страница создана 30.08.2013
http://primanota.ru/def-leppard/tomorrow-chords.htm
Привет, Гость.
Предлагаем пройти революционный курс по гитаре.
Подарок от PrimaNota.Ru, забирай!