PrimaNota.ru - самый крупный в мире бесплатный архив песенных текстов, аккордов, табулатур и нот


Def Leppard - Let It Go - текст песни, таба, бас-таба, видео

Регистрация Запомнить меня
Войти через:  Facebook Google Twitter Vk Yandex Mail.ru

Def Leppard - Let It Go - текст песни, таба, бас-таба, видео

Печатать
Просмотров: 641
Авторы: Pete Willis, Joe Elliott, Steve Clark

Band - Def Leppard
Song - Let It Go

Tuning: standard

 Intro:
            Q=140
 4/4
            Gtrs I, II
  Q.   H    E   E E E   +E  Q.   E
|-------------|--------------------|
|-------------|--------------------|
|-------------|--------------------|
|-------------|--------------------|
|-----------0-|-3-0-2b3r(2)-0----0-|
|-------------|--------------------|


  E E E   +E  Q.   E   E E E   +E  Q.   E   +E  E +H.
|--------------------|--------------------|--------------|
|--------------------|--------------------|--------------|
|--------------------|------------------2-|-(2)-4-(4)----|
|--------------------|------------------0-|-(0)-2-(2)----|
|-3-0-2b3r(2)------0-|-3-0-2b3r(2)-0------|--------------|
|-------------3------|--------------------|--------------|


  +H.      E E   E E E   +E  Q.   E   E E E   +E  Q.   E   E E E   +E  H
|--------------|--------------------|--------------------|------------------|
|--------------|--------------------|--------------------|------------------|
|-(4)----------|--------------------|--------------------|------------------|
|-(2)----------|--------------------|--------------------|------------------|
|------------0-|-3-0-2b3r(2)-0----0-|-3-0-2b3r(2)------0-|-3-0-2b3r(2)-0----|
|--------------|--------------------|-------------3------|------------------|


    E E E E Q.   E   E E E   +E  Q.   E
||-----------------|--------------------|
||o----------------|--------------------|
||-----------------|--------------------|
||----------0------|--------------------|
||o-3-2-0--------0-|-3-0-2b3r(2)-0----0-|
||--------3--------|--------------------|


  E E E   +E  Q.   E   E E E   +E  H
|--------------------|-------------------||
|--------------------|------------------o||
|--------------------|-------------------||
|--------------------|-------------------||
|-3-0-2b3r(2)------0-|-3-0-2b3r(2)-0----o||
|-------------3------|-------------------||


  E E E E H      W          +W           +W           +W
|--------------|----------|------------|------------|--------|
|--------------|----------|------------|------------|--------|
|---------2----|----------|------------|------------|--------|
|---------0----|-2--------|-(2)--------|-(2)--------|-(2)----|
|-3-2-0--------|-0--------|-(0)--------|-(0)--------|-(0)----|
|-------3------|----------|------------|------------|--------|


Verse:
    Gtr III
    W           W           W           W
||-----------|-----------|-----------|--------||
||o----------|-----------|-----------|-------o||
||-----------|-----------|-12--------|--------||
||--7--------|-10--------|-12--------|-12-----||
||o-7--------|-10--------|-----------|-12----o||
||-----------|-----------|-----------|--------||


  Gtr I
  Q.   E E E E E    Q.   E E E E E    Q.   E E E E E    Q.   E E E E E
|----------------|-----------------|-----------------|-----------------|
|----------------|-----------------|-----------------|-----------------|
|----------------|-----------------|-12--------------|-----------------|
|-7--------------|-10--------------|-12--------------|-12--------------|
|-7----0-0-0-0-0-|-10----0-0-0-0-0-|-------0-0-0-0-0-|-12----0-0-3-2-0-|
|----------------|-----------------|-----------------|-----------------|
|
|                                                              Gtr II
| W                 W                 W                 H      E E E E
|----------------|-----------------|-----------------|-----------------|
|----------------|-----------------|-----------------|-----------------|
|----------------|-----------------|-----------------|-----------------|
|----------------|-----------------|-----------------|-----------------|
|----------------|-----------------|-----------------|---------0-3-2-0-|
|----------------|-----------------|-----------------|-----------------|


  Q.   E E E E E    Q.   E E E E E    Q.   E E E E E    Q.    E E E E E
|----------------|-----------------|-----------------|------------------|
|----------------|-----------------|-----------------|------------------|
|----------------|-----------------|-12--------------|------------------|
|-7--------------|-10--------------|-12--------------|-12---------------|
|-7----0-0-0-0-0-|-10----0-0-0-0-0-|-------0-0-0-0-0-|-12-----0-0-3-2-0-|
|----------------|-----------------|-----------------|------------------|
|
| W                 W                 W                 E  Q  E E E E E
|----------------|-----------------|-----------------|------------------|
|----------------|-----------------|-----------------|------------------|
|----------------|-----------------|-----------------|------------------|
|----------------|-----------------|-----------------|------------------|
|----------------|-----------------|-----------------|--------0-0-3-2-0-|
|----------------|-----------------|-----------------|------------------|


Chorus:
    Gtr I
     E E  E E Q.   E    E E  E E  Q.   E
||-------------------|-------------------|
||o------------------|-------------------|
||-------------------|-------------------|
||-------------------|-------------------|
||o--3-0--3-2-0----0-|--3-0--3-2-------0-|
||-------------------|------------3------|
|
|   Gtr III
|    E E  E E Q.   E    E E  E E  Q.   E
||-------------------|-------------------|
||o------------------|-------------------|
||-------------------|-------------------|
||--10-7-10-9-7----7-|-10-7-10-9-------7-|
||o------------------|-----------10------|
||-------------------|-------------------|


                    1.
   E E  E E Q.   E    E E E  E  Q.   E
|------------------|---------------------||
|------------------|--------------------o||
|------------------|---------------------||
|------------------|------------0--------||
|--3-0--3-2-0----0-|--3-2-0----------0--o||
|------------------|---------3-----------||
|
|  E E  E E Q.   E    E E E  E  Q.   E
|------------------|-----------17--------||
|------------------|--------------------o||
|------------------|---------------------||
|-10-7-10-9-7----7-|-10-9-7----------7---||
|------------------|--------10----------o||
|------------------|---------------------||


Verse:
  2.
                     Gtr III
  E E E E Q.   E     Q.   E E E E E    Q.   E E E E E
|----------------||-----------------|-----------------|
|----------------||o----------------|-----------------|
|---------2------||-----------------|-----------------|
|---------0------||--7--------------|-10--------------|
|-3-2-0----------||o-7----0-0-0-0-0-|-10----0-0-0-0-0-|
|-------3--------||-----------------|-----------------|
|
| W                  W                 W
|----------------||-----------------|-----------------|
|----------------||o----------------|-----------------|
|----------------||-----------------|-----------------|
|----------------||-----------------|-----------------|
|----------------||o----------------|-----------------|
|----------------||-----------------|-----------------|


   Q.   E E E E E    Q.    E E E E E
|-----------------|-------------------||
|-----------------|------------------o||
|-12--------------|-------------------||
|-12--------------|-12----------------||
|-------0-0-0-0-0-|-12-----0-0-3-2-0-o||
|-----------------|-------------------||
|
|                          Gtr I
|  W                 E  Q  E E E E E
|-----------------|-------------------||
|-----------------|------------------o||
|-----------------|-------------------||
|-----------------|-------------------||
|-----------------|--------0-0-3-2-0-o||
|-----------------|-------------------||


    Gtrs I, II
    Q  E Q  Q.      Q  E Q  Q.      Q  E Q  Q.      Q  E E E E E E
||---------------|---------------|---------------|-------------------||
||o--------------|---------------|---------------|------------------o||
||---------------|---------------|-12------------|-------------------||
||--7------------|-10------------|-12------------|-12----------------||
||o-7--0-0--0----|-10--0-0--0----|-----0-0--0----|-12--0-0-0-3-2-0--o||
||---------------|---------------|---------------|-------------------||


Chorus:
    Gtr I
     E E  E E Q.   E    E E  E E  Q.   E    E E  E E Q.   E
||-------------------|-------------------|------------------|
||o------------------|-------------------|------------------|
||-------------------|-------------------|------------------|
||-------------------|-------------------|------------------|
||o--3-0--3-2-0----0-|--3-0--3-2-------0-|--3-0--3-2-0----0-|
||-------------------|------------3------|------------------|
|
|   Gtr II
|    E E  E E Q.   E    E E  E E  Q.   E    E E  E E Q.   E
||-------------------|-------------------|------------------|
||o------------------|-------------------|------------------|
||-------------------|-------------------|------------------|
||--10-7-10-9-7----7-|-10-7-10-9-------7-|-10-7-10-9-7----7-|
||o------------------|-----------10------|------------------|
||-------------------|-------------------|------------------|


 1.                     2.
   E E E  E  Q.   E     E E E E Q.   +E
|--------------------||--------------------||
|-------------------o||--------------------||
|--------------------||---------2----(2)---||
|------------0-------||---------0----(0)---||
|--3-2-0----------0-o||-3-2-0--------------||
|---------3----------||-------3------------||
|
|  E E E  E  Q.   E     W
|-----------17-------||--------------------||
|-------------------o||--------------------||
|--------------------||--------------------||
|-10-9-7----------7--||--------------------||
|--------10---------o||--------------------||
|--------------------||--------------------||


Break:
   H     E  Q   E    E  Q.   Q   Q
|-12----15-12-----|-------------17b19--|
|--------------15-|----15\-------------|
|-----------------|-14-----------------|
|-----------------|--------------------|
|-----------------|--------------------|
|-----------------|--------------------|
|
|  W                 W
|-----------------|--------------------|
|-----------------|--------------------|
|-----------------|--------------------|
|--2--------------|--------------------|
|--0--------------|--5-----------------|
|-----------------|--3-----------------|


   +E      E  E  Q      +E   Q     S  S  E  E  Q    Q   E
|-(17)b19-15-12-------------15--|--------------------------|
|---------------15b17r=(15)-----|-15-15-15-12-12\----------|
|-------------------------------|--------------------------|
|-------------------------------|--------------------------|
|-------------------------------|--------------------------|
|-------------------------------|--------------------------|
|
|   W                              E     E  E  E  E Q.
|-------------------------------|--------------------------|
|-------------------------------|--------------------------|
|-------------------------------|--------------------------|
|---7---------------------------|--------------------------|
|---5---------------------------|--3-----5--5--3--3--------|
|-------------------------------|-------------------3------|


   E  E  E  E     +E   E  E     +E
|-----------------------------------|
|---------------------15------------|
|-------12-14b16r(14)----14b16r(14)-|
|-12h14-----------------------------|
|-----------------------------------|
|-----------------------------------|
|
|  W
|-----------------------------------|
|-----------------------------------|
|-----------------------------------|
|--2--------------------------------|
|--0--------------------------------|
|-----------------------------------|


                                       ~~~~~~~~~~~~~~~~
   E     +E.  E  S  S  E  E      E.    W           +W
|-----------------------------------|-----------|---------|
|-----------------------------------|-----------|---------|
|------------12---------------------|-----------|---------|
|-14b16r(14)----14p12----12---------|-----------|---------|
|---------------------15--------15--|-14--------|-(14)----|
|-----------------------------------|-----------|---------|
|
|                                ~~~~~~~~~~~~~~~~~~~~~~
|  H.                       +S   E.    W           +W
|-----------------------------------|-----------|---------|
|-----------------------------------|-----------|---------|
|-----------------------------------|-----------|---------|
|-----------------------------------|-----------|---------|
|--5------------------------(5)--3--|--2--------|--(2)----|
|--3------------------------(3)-----|-----------|---------|


Bridge:
    Q.    E  +Q.    E    E  E   Q    E  E  Q
||--------------------|-----------------------|
||o-------------------|-13-12-------10--------|
||--7----10-(10)---12-|----------------11-----|
||--7----10-(10)---12-|-------(12)--------12--|
||o-------------------|-----------------------|
||--------------------|-----------------------|


  Q.   E +Q.   E   E E E E E E Q
|----------------|------------------||
|----------------|-------6-5-------o||
|-7----5-(5)---5-|-7-5-7-----5------||
|-7----5-(5)-----|-------------5----||
|----------------|-----------------o||
|----------------|------------------||


  Wx8
|--------|
|--------|
|--------|
|--------|
|--------|
|--------|


    Q.    E  +Q.    E    E  E   Q    E  E  Q
||--------------------|-----------------------|
||o-------------------|-13-12-------10--------|
||--7----10-(10)---12-|----------------11-----|
||--7----10-(10)---12-|-------(12)--------12--|
||o-------------------|-----------------------|
||--------------------|-----------------------|


  Q.   E +Q.   E   E E E E E E Q
|----------------|------------------||
|----------------|-------6-5-------o||
|-7----5-(5)---5-|-7-5-7-----5------||
|-7----5-(5)-----|-------------5----||
|----------------|-----------------o||
|----------------|------------------||


Solo:
  Gtr I
   H.                  +E      E       +S   S  Q      S   S  S   S  Q.
|-----------------------------------|---------------------------15-17b19----|
|-17b19---------------(17)b19-17b19r|=(17)p15------------15-17--------------|
|-----------------------------------|---------16-----16---------------------|
|-----------------------------------|---------------------------------------|
|-----------------------------------|---------------------------------------|
|-----------------------------------|---------------------------------------|
|
| Gtr II
|  E    E E   +E  Q.           E        E      E E   +E      Q.           E
|-----------------------------------|---------------------------------------|
|-----------------------------------|---------------------------------------|
|-----------------------------------|---------------------------------------|
|-----------------------------------|---------------------------------------|
|--3----0-2b3r(2)-0------------0----|---3------0-2b3r(2)------------------0-|
|-----------------------------------|------------------------3--------------|


   Q.          E   E.    E  E.       E  E     E  E     E   E     +E   E
|-17b19-------15--------15--------|-15-------15-------15-----------------|
|-----------------17b19----17b19--|----17b19----17b19-----17b19r(17)\----|
|---------------------------------|--------------------------------------|
|---------------------------------|--------------------------------------|
|---------------------------------|--------------------------------------|
|---------------------------------|--------------------------------------|
|
|  E    E E   +E   H                 E  E     E  E     Q.             E
|---------------------------------|--------------------------------------|
|---------------------------------|--------------------------------------|
|---------------------------------|--------------------------------------|
|---------------------------------|--------------------0-----------------|
|--3----0-2b3r(2)--0--------------|--3--2-----0-----------------------0--|
|---------------------------------|--------------3-----------------------|


  E  E Q        E  Q.       E E E    E  Q   Q
|------------------------|----------------------|
|------8-----------8-----|----8------8----------|
|-9-/9---------/9--------|-/9---9-------7\------|
|------------------------|----------------------|
|------------------------|----------------------|
|------------------------|----------------------|
|
| E  E E   +E   Q.     E    E E E   +E  Q.    E
|------------------------|----------------------|
|------------------------|----------------------|
|------------------------|----------------------|
|------------------------|----------------------|
|-3--0-2b3r(2)--0------0-|--3-0-2b3r(2)-------0-|
|------------------------|--------------3-------|


                                          ~~
   S  S  S  S  S    S  S   S  S  S  S  S  Q     E  E  E  E  Q.    +E
|--------------------------------------------|------------------------|
|-12-15p12-12-15p==12-12--15p12-12-15p12-----|------------------------|
|----------------------------------------12--|-------------12----(12)-|
|--------------------------------------------|-15-14-12---------------|
|--------------------------------------------|----------15------------|
|--------------------------------------------|------------------------|
|
|  E     E     E      +E      H                 E  E  E  E  Q.     E
|--------------------------------------------|------------------------|
|--------------------------------------------|------------------------|
|--------------------------------------------|------------------------|
|--------------------------------------------|--------------0---------|
|--3-----0-----2b3r===(2)-----0--------------|--3--2--0------------0--|
|--------------------------------------------|-----------3------------|


  W            H    H         H     Q  Q        E E E E S  S Q.
|------------|--------------|-----------------|--------------------|
|------------|--------------|-----------------|--------------------|
|------------|------9b11----|----------9b11===|=9-9-9-9-9rp7-------|
|------------|--------------|-----------------|--------------9-----|
|------------|--------------|-----------------|--------------------|
|------------|--------------|-----------------|--------------------|
|
| H     H      W              H     H           W
|------------|--------------|-----------------|--------------------|
|------------|--------------|-----------------|--------------------|
|------------|--------------|-----------------|--------------------|
|-9----12----|-7------------|-9----12---------|-7------------------|
|-9----12----|-7------------|-9----12---------|-7------------------|
|------------|--------------|-----------------|--------------------|


  S  S S S S S E      E E E  E    E  E  H.
|------------------------------|-----------------|
|------------------------------|----12-12b14r====|
|--------------7b7.5----7-9-11-|-11--------------|
|----------7-9--------9--------|-----------------|
|------7-9---------------------|-----------------|
|-7-10-------------------------|-----------------|
|
| H                   H           W
|------------------------------|-----------------|
|------------------------------|-----------------|
|------------------------------|-----------------|
|-9------------------12--------|--7--------------|
|-9------------------12--------|--7--------------|
|------------------------------|-----------------|


   E     E     E     E     E     E     E     E
|-19b21-19b21-19b21-19b21-19b21-19b21-19b21-24-|
|----------------------------------------------|
|----------------------------------------------|
|----------------------------------------------|
|----------------------------------------------|
|----------------------------------------------|
|
|  W
|----------------------------------------------|
|----------------------------------------------|
|----------------------------------------------|
|--4-------------------------------------------|
|--2-------------------------------------------|
|----------------------------------------------|


   S  S  S  S  S  S  E.    S  S  S  S  E.
|-22-19h20p19----19-------17--------------|
|-------------20----17b19----17h19--------|
|----------------------------------19-16--|
|-----------------------------------------|
|-----------------------------------------|
|-----------------------------------------|
|
|  W
|-----------------------------------------|
|-----------------------------------------|
|--9--------------------------------------|
|--9--------------------------------------|
|-----------------------------------------|
|-----------------------------------------|


Verse:
  Q  E E E E E E    Q  E E E E E E    Q  E E E E E E    W
|----------------|-----------------|-----------------|-------|
|----------------|-----------------|-----------------|-------|
|----------------|-----------------|-12--------------|-------|
|-7--------------|-10--------------|-12--------------|-12----|
|-7--0-0-0-0-0-0-|-10--0-0-0-0-0-0-|-----0-0-0-0-0-0-|-12----|
|----------------|-----------------|-----------------|-------|


    Q  E E E E E E    Q  E E E E E E    Q  E E E E E E    H    E E E E   3x
||-----------------|-----------------|-----------------|-----------------||
||o----------------|-----------------|-----------------|----------------o||
||-----------------|-----------------|-12--------------|-----------------||
||--7--------------|-10--------------|-12--------------|-12--------------||
||o-7--0-0-0-0-0-0-|-10--0-0-0-0-0-0-|-----0-0-0-0-0-0-|-12----0-3-2-0--o||
||-----------------|-----------------|-----------------|-----------------||


Chorus:
    Gtr I
     E E  E E Q.   E    E E  E E  Q.   E
||-------------------|-------------------|
||o------------------|-------------------|
||-------------------|-------------------|
||-------------------|-------------------|
||o--3-0--3-2-0----0-|--3-0--3-2-------0-|
||-------------------|------------3------|
|
|   Gtr II
|    E E  E E Q.   E    E E  E E  Q.   E
||-------------------|-------------------|
||o------------------|-------------------|
||-------------------|-------------------|
||--10-7-10-9-7----7-|-10-7-10-9-------7-|
||o------------------|-----------10------|
||-------------------|-------------------|


   E E  E E Q.   E    E E E  E  Q.   E   4x
|------------------|---------------------||
|------------------|--------------------o||
|------------------|---------------------||
|------------------|------------0--------||
|--3-0--3-2-0----0-|--3-2-0----------0--o||
|------------------|---------3-----------||
|
|  E E  E E Q.   E    E E E  E  Q.   E   4x
|------------------|-----------17--------||
|------------------|--------------------o||
|------------------|---------------------||
|-10-7-10-9-7----7-|-10-9-7----------7---||
|------------------|--------10----------o||
|------------------|---------------------||


Outro:
  Q  Q  Q  Q    H    E E E E    E  E E E E E E E    E  E S E E S S S S S S S
|-------------|--------------|-------------------|---------------------------|
|-------------|-3------------|-------------------|---------------------------|
|-5--4--2--0--|------4-5-5---|--4--5-5---7-7p5---|--7--5---4-5---------------|
|-------------|------------7-|---------7-------7-|-------7-----7-5-----------|
|-------------|--------------|-------------------|-----------------3-5---3---|
|-------------|--------------|-------------------|---------------------5---5-|
|
| Q  Q  Q  Q    W              +W                  +W
|-------------|--------------|-------------------|---------------------------|
|-------------|--------------|-------------------|---------------------------|
|-------------|-2------------|-(2)---------------|-(2)-----------------------|
|-------------|-0------------|-(0)---------------|-(0)-----------------------|
|-3--2--0-----|--------------|-------------------|---------------------------|
|----------3--|--------------|-------------------|---------------------------|


  ~
  W          +S  S S S S S S S S S S S S S S S
|----------|-----------------------------------|
|----------|-----------------------------------|
|----------|-----------------------------------|
|----------|-----------------------------------|
|----------|-----5p3p0-5p3p0-5p3p0-5p3p0-5p3p0-|
|-3--------|-(3)-------------------------------|


  Gtr I
  S S S S S S S S S S S S S S S S
|---------------------------------|
|---------------------------------|
|---------------------------------|
|---------------------------------|
|-5p3p0-5p3p0-5p3p0-5p3p0-5p3p0-5-|
|---------------------------------|
|
|     Gtr II
| W
|---------------------------------|
|---------------------------------|
|---------------------------------|
|---------------------------------|
|---------------------------------|
|---------------------------------|


   H        H          H        H         W
|-------------------|-------------------|------------*|
|-------------------|-------------------|------------*|
|-------------------|-------------------|------------*|
|-14b16r===14b16r===|=14b16r===14b16----|------------*|
|-------------------|-------------------|------------*|
|-------------------|-------------------|------------*|
|
|  W                  +W                  Q  Q  H
|-------------------|-------------------|------------*|
|-------------------|-------------------|------------*|
|-------------------|-------------------|------------*|
|-------------------|-------------------|-2----------*|
|--5----------------|-(5)---------------|-0----------*|
|--3----------------|-(3)---------------|------------*|
Добавлено: 01.06.2012
Другие материалы по этой песне:

Страница создана 27.03.2012
http://primanota.ru/def-leppard/let-it-go-chords.htm
Привет, Гость.
Предлагаем пройти революционный курс по гитаре.
Подарок от PrimaNota.Ru, забирай!