PrimaNota.ru - самый крупный в мире бесплатный архив песенных текстов, аккордов, табулатур и нот


Def Leppard - Guilty - текст песни, таба, видео

Регистрация Запомнить меня
Войти через:  Facebook Google Twitter Vk Yandex Mail.ru

Def Leppard - Guilty - текст песни, таба, видео

Печатать
Просмотров: 127
                         Def leppard – Guilty solo


By Sanjeev George and Thomas George, Bangalore, India
Email at bassatom@yahoo.co.in

v  vibrato
s  slide as reqd.
h  hammer on
~  let ring

We have figured out 2 ways of playing this. Listen to the song for correct timing.
There are lots of effects with the distortion used for the song, perhaps the wah pedal is also used

     I

e|---------------------------------------------------|
B|----------7-b9-----7v------------------------------|
G|---9vvv---------9--------8-h9-8v-----6~------------|
D|----------------------------------9------6s9-------|
A|---------------------------------------------------|
E|---------------------------------------------------|

e|------------------7~---9s12-----14--16---16b—16vvvv---------|
B|---9-b10—9v---10--------------------------------------------|
G|------------------------------------------------------------|
D|------------------------------------------------------------|
A|------------------------------------------------------------|
E|------------------------------------------------------------|


        II

e|---------------------------------------------------------------|
B|---------------------------------------------------------------|
G|----------11-b13------11v--------------------------------------|
D|---14vvv----------14---------13-h14—13v-----13~----------------|
A|-----------------------------------------14------11s14---------|
E|---------------------------------------------------------------|


e|------------------------------12'--14—16vvv----------------|
B|---------------------12~--14-------------------------------|
G|---13-b14---13v--14----------------------------------------|
D|-----------------------------------------------------------|
A|-----------------------------------------------------------|
E|-----------------------------------------------------------|

Please rate and comment on this tab

Добавлено: 21.04.2012
Другие материалы по этой песне:

Страница создана 24.03.2012
http://primanota.ru/def-leppard/guilty-chords.htm
Привет, Гость.
Предлагаем пройти революционный курс по гитаре.
Подарок от PrimaNota.Ru, забирай!