PrimaNota.ru - самый крупный в мире бесплатный архив песенных текстов, аккордов, табулатур и нот


Def Leppard - Turn To Dust - текст песни, таба, видео

Регистрация Запомнить меня
Войти через:  Facebook Google Twitter Vk Yandex Mail.ru

Def Leppard - Turn To Dust - текст песни, таба, видео

Печатать
Просмотров: 154
 Def leppard – turn to dust
        From “Slang”

By Sanjeev George and Thomas George
Tabbed for www.ultimate-guitar.com
Contact us at SanjeevGeorge123@yahoo.co.in
 
It's a fusion song with many instruments, some Indian classical ones too.

The guitar parts are tabbed. Listen to the song and figure out where they fit.

Verses

e|-------------------------------------|
B|-------------------------------------|
G|-3-3-3-3-3-------------5-5-5-5-------|
D|-3-3-3-3-3---3-3-3-3---5-5-5-5-------|Play twice
A|-1-1-1-1-1---3-3-3-3---3-3-3-3-------|
E|-------------1-1-1-1-----------------|


Chorus

e|-----------------------------------------------------------------|
B|-----------------------------------------------------------------|
G|---3--3-3------------------------------8--8-8--8-8-8-8-----------|__
D|---3--3-3---3--3-3--3-3-3-3---6--6-6---8--8-8--8-8-8-8-----------|  |
A|---1--1-1---3--3-3--3-3-3-3---6--6-6---6--6-6--6-6-6-6-----------|  |
E|------------1--1-1--1-1-1-1---4--4-4-----------------------------|  |
                                                                      |
                                                                      _Play twice
e|--------------------------------4-4-4-4------4-4-4-4-------------|  |
B|--------------------------------4-4-4-4------4-4-4-4-------------|  |
G|---3--3-3-----------------------4-4-4-4------4-4-4-4-------------|  |
D|---3--3-3---3--3-3--3-3-3-3-----6-6-6-6------6-6-6-6-------------|__|
A|---1--1-1---3--3-3--3-3-3-3---6-6-6-6-6----6-6-6-6-6-------------|
E|------------1--1-1--1-1-1-1---4-4-4-4-4----4-4-4-4-4-------------|

e|--------|
B|--------|
G|---5~---|
D|---5~---|
A|---3~---|
E|--------|

Bridge

Guitar 2 (also plays the solo)
e|----------------------------------------------------------------------------|
B|---6p5—-5~-----5-5-5-5\3-3-3-----3-3-3-3p1----------------------------------|
G|---5----5~-----5-5-5—5\3-3-3-----3-3-3-3---3--------3-3-3-3-5\--------------|
D|-------------------------------------------3-3~-----3-3-3-3-5\--------------|
A|---------------------------------------------3~-----------------------------|
E|----------------------------------------------------------------------------|

Guitar 1 after guitar 2 above
 
e|--------------------------------------|
B|--------------------------------------|
G|---555555555555-5\3-33-333-33-----5---|Play twice
D|---555555555555-5\3-33-333-33-3---5---|
A|---333333333333-3\1-11-111-11-3---3---|
E|------------------------------1-------|

Rhythm for solo (guitar 1)

e|--------------------------------------|
B|--------------------------------------|
G|---555555555555-5\3-33-333-33-----5---|Play twice
D|---555555555555-5\3-33-333-33-3---5---|
A|---333333333333-3\1-11-111-11-3---3---|
E|------------------------------1-------|

After last chorus, this is played occasionally till song fades away

e|---1-----------------|
B|-----2---2p1---2-1~--|
G|-------3-----3---0~--|
D|-----------------2~--|
A|-----------------3~--|
E|---------------------|
Добавлено: 10.07.2012
Другие материалы по этой песне:

Страница создана 21.05.2012
http://primanota.ru/def-leppard/turn-to-dust-chords.htm
Привет, Гость.
Предлагаем пройти революционный курс по гитаре.
Подарок от PrimaNota.Ru, забирай!