PrimaNota.ru - самый крупный в мире бесплатный архив песенных текстов, аккордов, табулатур и нот


Def Leppard - Bringin On The Heartbreak Acoustic Live - аккорды и текст, таба, видео

Регистрация Запомнить меня
Войти через:  Facebook Google Twitter Vk Yandex Mail.ru

Def Leppard - Bringin On The Heartbreak Acoustic Live - аккорды и текст, таба, видео

Печатать
Просмотров: 183
Bringin On The Heartbreak Acoustic Live
Def Leppard
		   Artist:  Def Leppard
       * Live Acoustic intro to "Bringin' On The Heartbreak" *
         Tab by:  Steven Greencorn s_greenc@bass.stmarys.ca

Also, I am not sure of the chords Steve plays on the 12-string

/ = Slide up
\ = Slide down
v = Vibrato
h = Hammer on/off
''= fast picking

       Am                                     Em
E|-----------------------------------------|-----------8-8/10v-\-
B|-----------------------------------------|--------10-----------
G|------------4--5--7/-9-999-999-99-9vvvvv-|--7--10--------------
D|-----5--7--------------------------------|---------------------
A|-----------------------------------------|---------------------
E|-----------------------------------------|---------------------

      G
E|-8---7-5--------------------------------|----------------------
B|---------8-6-5--5h6-5-------------------|----------------------
G|----------------------7-5-4vvvvvvvv-\---|----------------------
D|----------------------------------------|----------------------
A|----------------------------------------|----------------------
E|----------------------------------------|----------------------

      E
E|--7-8-10--8-777h8--------|-7''--8''--10''/-12''----------------
B|------------------10-10v-|-------------------------------------
G|-------------------------|-------------------------------------
D|-------------------------|-------------------------------------
A|-------------------------|-------------------------------------
E|-------------------------|-------------------------------------


This part I am really not sure of; Phil does some kind of sliding
thing using his pick. Lots of muting on the strings. ?
Here's how I do it:


E|---------------------------------------------------------------
B|---------------------------------------------------------------
G|-/12\12\12/12\12/----12--------10--12---------10--12-----------
D|------------------------12--14--------12--14----------12-------
A|----------------------------------------------------------14---
E|---------------------------------------------------------------


E|---------------------------------------------------------------
B|---------------------------------------------------------------
G|---------------------------------------------------------------
D|---------------------------------------------------------------
A|--12--11--12--11--12--11--12--11-12-11-12-11-12-11--12--11-12v\
E|---------------------------------------------------------------


End on an A note


                                                 ENJOY>     
Добавлено: 19.08.2013
Другие материалы по этой песне:
  • Аккорды и текст

Страница создана 27.06.2012
http://primanota.ru/def-leppard/bringin-on-the-heartbreak-acoustic-live-chords.htm
Привет, Гость.
Предлагаем пройти революционный курс по гитаре.
Подарок от PrimaNota.Ru, забирай!