PrimaNota.ru - самый крупный в мире бесплатный архив песенных текстов, аккордов, табулатур и нот


Def Leppard - Lets Get Rocked - текст песни, таба, бас-таба, видео

Регистрация Запомнить меня
Войти через:  Facebook Google Twitter Vk Yandex Mail.ru

Def Leppard - Lets Get Rocked - текст песни, таба, бас-таба, видео

Печатать
Просмотров: 239
Авторы музыки: Phil Collen, Robert John “Mutt” Lange, Joe Elliott, Rick Savage

 Intro
  Moderate Rock Q=92
 4/4
  Gtr I
  W          S S S S S S S S S S S S S S S S
|----------|---------------------------------|
|----------|---------------------------------|
|----------|---------------------------------|
|----------|-3-3-3-3-3-3-3-3-3-3-3-3-3-3-3-3-|
|----------|---------------------------------|
|----------|---------------------------------|


  S S S S S S S S S S S S S S S S
|-----------------------------------|
|-----------------------------------|
|-----------------------------------|
|-3-3-3-3-3-3-3-3-3-3-3-3-3-3-3-3---|
|-----------------------------------|
|-----------------------------------|


 2/4               4/4
  S S S S S S S S   S Q..   +H       +H     +S  S E E E
|-----------------|----------------|--------------------|
|-----------------|----------------|------------------6-|
|-----------------|---3-----(3)----|-(3)----(3)-3-3-5-5-|
|-3-3-3-3-3-3-3-3-|-3-3-----(3)----|-(3)----(3)-3-3-5-3-|
|-----------------|-3-1-----(1)----|-(1)----(1)-1-1-3---|
|-----------------|-1--------------|--------------------|


  Q  Q  E E E E            Q          Q         S  S E    E      E
|---------------|-----------------------------------------------------------|
|-6-----------6-|----------6-------------------------------------6----------|
|-5-------3-5-5-|----------5-----------------------3-3----5------5----------|
|-3-------3-5-3-|----------3-----------------------3-3----5------3----------|
|---------1-3---|----------------------------------1-1----3-----------------|
|---------------|-----------------------------------------------------------|
|
| Gtr II
| W                a      +S   S S  S S  S S  S S  S S  S S  S   S      +S
|---------------|-----------------------------------------------------------|
|---------------|-13-----(13)-13---13---13---13---13---13---13--13----------|
|---------------|-12b14==(12)-12---12---12---12---12---12---12r-12pb14r(12)-|
|---------------|-----------------------------------------------------------|
|---------------|-----------------------------------------------------------|
|---------------|-----------------------------------------------------------|


   Q  Q    E   E E E
|---------------------|
|--6---------------6--|
|--5-----------3-5-5--|
|--3-----------3-5-3--|
|--------------1-3----|
|---------------------|
|
|  ~~
|  H      +Q     Q
|---------------------|
|---------------------|
|-10-----(10)\--------|
|---------------------|
|---------------------|
|---------------------|


                                       1st Verse
                                                             ~~~~~~~~~
  Q           Q         S   S  E E E    Wx2          H.      Q    +Q   +H.
|------------------------------------||------------|------------|--------------|
|-6--------------------------------6-||------------|------------|--------------|
|-5-------------------------3--3-5-5-||------------|---------8--|-(8)--(8)\----|
|-3-------------------------3--3-5-3-||------------|---------8--|-(8)--(8)\----|
|---------------------------1--1-3---||------------|------------|--------------|
|------------------------------------||------------|------------|--------------|
|
| E a a  S  S S  S S  S S   S  E Q      Wx2          W             W
|------------------------------------||------------|------------|--------------|
|------------------------------------||------------|------------|--------------|
|-------10-10---10---10---(10)-------||------------|------------|--------------|
|-------10-10---10---10---(10)-------||------------|------------|--------------|
|-----x------------------------------||------------|------------|--------------|
|---x--------------------------------||------------|------------|--------------|


                    Gtr III             Gtr I
                    ~~
  W          H    E Q.     +W           H    E a a  E  +Q
|----------|--------6----|-(6)--------|------------11-(11)\---|
|----------|--------4----|-(4)--------|------------11-(11)\---|
|----------|--------5----|-(5)--------|----------x------------|
|----------|-------------|------------|--------x--------------|
|----------|-------------|------------|-----------------------|
|----------|-------------|------------|-----------------------|


                F5III
  Gtr II
  H        Q.    S   S   S  +S Q.   H
                 |   |   |   |
                 /   /   /   /

    ~~~~~~~~~~                           ~~~
  S Q..   +Q.   +E       H.            E E
|----------------------|-------------------|
|----------------------|-------------------|
|----------------------|-------------------|
|-1s3-----(3)---(3)\---|-----------------6-|
|----------------------|-------------------|
|----------------------|-------------------|


   H      Q.        S S   S +S   Q.   H
                    | |   |  |
                    / /   /  /

 ~~~~~~~~~~~~
  +H     +E. S +E   E     S +S   Q.   H
|-----------------------|------------------|
|-----------------------|-6-(6)\-----------|
|-----------------------|-5-(5)\-----------|
|-(6)----(6)-6-(6)\-----|-3-(3)\-----------|
|-----------------------|------------------|
|-----------------------|------------------|


                            ~~~~
  Q  S S S S  S  S S S  S   E.
|------------------------------|
|------------------------------|
|------------------------------|
|------------[3]p1-----[1]-[3]-|
|------------------------------|
|------1-4p1-------4p1---------|


 ~~~~~~~~                    ~~~~~~~~~                      ~~
   +E    E S S S S  S  S S S Q    +E  E S S S S  S  S S S S E.
|-------------------------------|------------------------------|
|-------------------------------|------------------------------|
|-------------------------------|------------------------------|
|-([3])\-----------[3]p1-----1--|-(1)-----------[3]p1-----1s3--|
|-------------------------------|------------------------------|
|------------1-4p1-------4p1----|---------1-4p1-------4p1------|


                          F5(type 3)
  Gtr II
  W                        E  +E   Q  H      W
                           |   |
                           /   /

  Q  S S S S S S S S Q    +E  +E   Q  H      S  S  E Q  H
|-----------------------|------------------|-----------------||
|-----------------------|------------------|-6-(6)-----------||
|-----------------------|------------------|-5-(5)-----------||
|------------3p1--------|------------------|-3-(3)-----------||
|--------------------3--|-(3)-(3)\---------|-----------------||
|------1-4p1-----4p1-1--|-(1)-(1)\---------|-----------------||


 Bridge
  $
  Bb5
  H.                    S  S  S  S    +H               Q   E +E
  |                     |  |  |  |     |               |   |  |
  /                     /  /  /  /     /               /   /  /

  S   S  E  E  E  E  E  S  S  S  S    +S   S  E  E  E  Q   E  E
|----------------------------------|-----------------------------|
|----------------------------------|-----------------------------|
|----10-12-12-12-12-10-10-10-10-10-|-(10)-10-12-12-12-10--10-10\-|
|-----8-10-10-10-10--8--8--8--8--8-|--(8)--8-10-10-10--8---8--8\-|
|----------------------------------|-----------------------------|
|----------------------------------|-----------------------------|


  Eb5                                                     C5Bb5
  H.                    S  S  S  S    +H.                 E E
  |                     |  |  |  |     |                  | |
  /                     /  /  /  /     /                  / /

  S   S  E  E  E  E  E  S  S  S  S    +S   S  E  E  E  Q  Q
|----------------------------------|----------------------------|
|----------------------------------|----------------------------|
|----10-12-12-12-12-10-10-10-10-10-|-(10)-10-12-12-12-10--------|
|-----8-10-10-10-10--8--8--8--8--8-|--(8)--8-10-10-10--8--------|
|----------------------------------|----------------------------|
|----------------------------------|----------------------------|


  C5              Bb5  C5              Bb5  C5                      Bb5C5F5
  E. +S   Q  Q  S E.   E. +S   Q  Q  S E.   Q  +H.        E E E E S E. E E
  |   |         | |    |   |         | |    |   |         | | | | | |  | |
  /   /         / /    /   /         / /    /   /         / / / / / /  / /

                                                ~~~
  E. +S   Q  Q  S E.   E. +S   Q  Q  S E.   Q  +H.        E E E E S E. E E
|--------------------|--------------------|-------------|-------------------||
|--------------------|--------------------|-------------|-------------------||
|-5--(5)\-------5S3--|-5--(5)\-------5S3--|-5--(5)------|-5-5-5-5-5-3--5----||
|-5--(5)\-------5S3--|-5--(5)\-------5S3--|-5--(5)------|-5-5-5-5-5-3--5-3--||
|-3--(3)\-------3S1--|-3--(3)\-------3S1--|-3--(3)------|-3-3-3-3-3-1--3-3--||
|--------------------|--------------------|-------------|----------------1--||


 1st and 2nd Choruses
  F5            BbC5F5            Bb5 C5F5
  Q     Q   E   E E E   Q   Q   S S E E E
  |             | | |   |         | | | |
  /             / / /   /         / / / /

  S S E E E S S E E E   E E E E E   E E E
|---------------------|-------------------|
|-5h6---6---5h6---5-6-|-6---6---6-----6---|
|-5---5-5-5-5---5-5-5-|-5-5-5-5-5---5-5-5-|
|-3---3---3-3---3-3-3-|-3-3---3-----3---3-|
|---------------------|-------------------|
|---------------------|-------------------|


                BbC5F5            Bb5 C5
  Q     Q   E   E E E   Q   Q   S S E E +E
  |             | | |   |         | | |  |
  /             / / /   /         / / /  /

  S S E E E S S E E E   E E E E E   E E +E
|---------------------|-----------------------|
|-5h6---6---5h6---5-6-|-6---6---6-----6-(6)\--|
|-5---5-5-5-5---5-5-5-|-5-5-5-5-5---5-5-(5)\--|
|-3---3---3-3---3-3-3-|-3-3---3-----3---------|
|---------------------|-----------------------|
|---------------------|-----------------------|


                                                                 To Coda
                                      F5        BbC5F5            Bb5 C5F5
  W                 W                 Q   Q   E E E E   Q   Q   S S E E E
                                      |         | | |   |         | | | |
                                      /         / / /   /         / / / /

                                                                ~
  E E E E E E E E   E E E E E E E E   E E E E E E E E   E E E E H
|-----------------|-----------------|-----------------|-------------------||
|-4-----4-----4-3-|-3-----3-------6-|-6---6---6---6---|-6---6---6---------||
|-3-3---3-3---3-3-|-3-3---3-3-3-5-5-|-5-5-5-5-5-5-5-5-|-5-5-5-5-5---------||
|-1---1-1---1-1-3-|-3---3-3---3-5-3-|-3-3---3---3---3-|---3---3-----------||
|-----------------|-----------1-3---|-----------------|-------------------||
|-----------------|-----------------|-----------------|-------------------||


 2nd Verse
  H     H      Wx2          H    S  S  S S  S  E.
|------------|------------|-------------------16b18r|
|------------|------------|--------16-16-x-16-16b18r|
|------------|------------|--------15-15-x-15--0----|
|------------|------------|-------------------------|
|------------|------------|-------------------------|
|-1\---------|------------|-------------------------|


                \4____/
   +Q    Q  E.  a    +S    +Q
|-(16)\--------------------------|
|-(16)\--------------------------|
|--(0)\--------<3>--(<3>)-(<3>)--|
|--------------------------------|
|--------------------------------|
|--------------------------------|


                                         ~~~
                                                               |-3-|
  H    S S S S S E.   W          H    S  Q.    +S      H.      E E E
|-------------------|----------|---------------------|----------------|
|-------------------|----------|---------------------|----------------|
|-------------------|----------|--------[4]---([4])\-|----------------|
|----------1-x-1-3--|----------|---------------------|----------------|
|--------3----------|----------|---------------------|---------6-6-6--|
|-------------------|----------|---------------------|---------4-4-4--|


  ~                                ~~~~~~~                           ~~~~~~~
  W          +E   E Q    a        +Q.      +E       +Q     Q  H      H    H
|----------|------------------------------------|------------------|-----------|
|----------|-----------[15]b16==([15])r==([15])-|-([15])\----------|-----------|
|----------|------------------------------------|------------------|-----------|
|----------|------------------------------------|------------------|-----------|
|-3--------|-(3)\-------------------------------|------------------|-5----3----|
|-1--------|-(1)\-------------------------------|------------------|-----------|


                                D.S. al Coda
       <
  H    Q.   +E     Q   Q  H      S S E Q  H
|----------------|-------------|---------------||
|----------------|-------------|-6-6-----------||
|------8----(8)\-|-------------|-5-5-----------||
|------8----(8)\-|-------------|-3-3-----------||
|----------------|-------------|---------------||
|----------------|-1\----------|---------------||


 Bridge
  &
  Eb5                       Bb5
  Gtr II
  E E E E E   E    E    E   E E E E E   E    E    E
  | | | | |   |    |    |   | | | | |   |    |    |
  / / / / /   /    /    /   / / / / /   /    /    /

  Gtrs I, III
  E E E E S S S S +S  S E   E E E E S S S S +S  S E
|-------------------------|-6---------------------6-|
|-------6-------6-(6)-----|-6-----6-------6-(6)---6-|
|-8-8-------8-----------8-|-7-7-------7---------7-7-|
|-8---8---8---8-------8---|-8---8---8---8-------8-8-|
|-6-----------------------|-------------------------|
|-------------------------|-------------------------|


  F5
   E  E  E  E  E     E    E      E
   |  |  |  |  |     |    |      |
   /  /  /  /  /     /    /      /

   E  E  E  E  S  S  S S +S   S  E
|-----------------------------------|
|--8-------------------8-(8)-----8--|
|-10-10----10----10----------10-10--|
|-10----10----10----10-------10-10--|
|--8-----------------------------8--|
|-----------------------------------|


  C5
   E E  E E  E    E    E     E
   | |  | |  |    |    |     |
   / /  / /  /    /    /     /

   E E  E E  S S  S S +S   S E
|---------8--------------------|
|--8------8---------8-(8)------|
|--9-9---------9-------------9-|
|-10---10---10---10-------10---|
|------------------------------|
|------------------------------|


  Eb5                       Bb5
  E E E E E   E    E    E   E E E E E   E    Q
  | | | | |   |    |    |   | | | | |   |    |
  / / / / /   /    /    /   / / / / /   /    /

                                             ~~~
  E E E E S S S S +S  S E   E E E E S S S S +Q
|-------------------------|-6--------------------|
|-------6-------6-(6)-----|-6-----6-------6-(6)--|
|-8-8-------8-----------8-|-7-7-------7---7-(7)--|
|-8---8---8---8-------8---|-8---8---8---8--------|
|-6-----------------------|----------------------|
|-------------------------|----------------------|


  Gtr I
  Q  E S S H            S  E. E. S H
|--------------------|------------------------------|
|--------------------|------------------------------|
|-5----3-3-----------|-----3-----5------------------|
|-5--3-3-3-----------|-----3--3--5------------------|
|-3--0-1-1-----------|-----1--3--3------------------|
|--------------------|--------1---------------------|
|
| Gtr II
|                \2                   \1.5____/
| H        S E. +Q     +Q     Q    S  a      +Q..
|--------------------|------------------------------|
|--------------------|------------------------------|
|--------------------|---------------<4>----(<4>)---|
|------------3--(3)--|-(3)--------------------------|
|--------------------|------------------------------|
|--------------------|------------------------------|


  Q  E S S H            S E. E. S H
|---------------------|------------------------|
|---------------------|------------------------|
|-5----3-3------------|---3-----5--------------|
|-5--3-3-3------------|---3--3--5--------------|
|-3--0-1-1------------|---1--3--3--------------|
|---------------------|------1-----------------|
|
| H        S  E.  Q     H         E. S S S S S
|------------/x\-/x\--|------------------------|
|---------------------|------------------------|
|---------------------|--------------x-x-x-x-x-|
|---------------------|--------------x-x-x-x-x-|
|---------------------|------------------------|
|---------------------|------------------------|


                                                             C5
  Gtr IV
  S S  S S S S S S S   S S S S S S S    S  S  S  S   S  S  S  S   E  E E E
  | |  | | | | | | |   | | | | | | |    |  |  |  |   |  |  |  |   |  | | |
  o /  / / / / / / /   / / / / / / /    /  /  /  /   /  /  /  /   /  o o o

  Q        E   S S Q..             S    E     S  S  +E     E     +E  E E E
|------------------------------------|-------------------------------------||
|------------------------------------|-------------------------------------||
|-5------------3-3-----------------3-|--3-----3------------5-----(5)-------||
|-5--------3---3-3-----------------3-|--3-----3--3--(3)----5-----(5)---3-5-||
|-3--------0---1-1-----------------1-|--1-----1--3--(3)----3-----(3)-0-1-3-||
|------------------------------------|-----------1--(1)--------------------||
|
| S E.     Q       H                    S  S  S  S  +E     S  S  +H
|------------------------------------|-------------------------------------||
|------------------------------------|-11-11-11-----------13-13-(13)-------||
|-x----------------------------------|-10-10-10-10-(10)---12-12-(12)-------||
|-x----------------------------------|----------10-(10)--------------------||
|------------------------------------|-------------------------------------||
|------------------------------------|-------------------------------------||


 Guitar Solo
  Eb5                     G#5         Eb5
   E     E     E     E     E     E  E  E
   |     |     |     |     |     |  |  |
   /     /     /     /     /     /  /  /

   S  S  S  S  S  S  S  S  S  S  E  E  S  S
|-21----21----21-21-21-21-21-16-16-16-16----|
|-21-21-21-21-21-21-21-21-21----16-16-16-16-|
|----18----18-------------------------------|
|-------------------------------------------|
|-------------------------------------------|
|-------------------------------------------|
|
|  PM----------------------------------------
|  E     E     E     E     E     E  E  E
|-------------------------------------------|
|-------------------------------------------|
|-10----10----10----10-----8-----8--8-13----|
|-11----11----11----11----10----10-10-13----|
|-------------------------------------------|
|-------------------------------------------|


   E     E   E   E   E   E   E    E
   |     |   |   |   |   |   |    |
   /     /   /   /   /   /   /    /

         ~~~~~~~~~~~~~~~
   S  S  E  +Q      +Q      +E   +E
|-16-15-15-(15)----(15)----(15)-------|
|-16-16-16-(16)----(16)----(16)-(16)\-|
|-------------------------------------|
|-------------------------------------|
|-------------------------------------|
|-------------------------------------|
|
|-------------------------------|
|  E     E   E   E   E   E   E    E
|-------------------------------------|
|-------------------------------------|
|-13----12--12--12--12--12--12---12---|
|-13----13--13--13--13--13--13---13---|
|-------------------------------------|
|-------------------------------------|


  Eb5                                                   G#5                                    Eb5
   E           E           E           E                 E           E              E           E
   |           |           |           |                 |           |              |           |
   /           /           /           /                 /           /              /           /

   |3-|                    |3-|        |------6-------|              |-----5-----|              |------6-------|
   S  T  T  T  T  T  T  T  S  T  T  T  T  T  T  T  T  T  T  T  T  T  T  T  T  T  T  T  T  T  T  T  T  T  T  T  T
|----------------------------------------------------------------------------------------------15-15-13-14-15-16b18==|
|-------------------------------------------------------------------------------13-15-16-13-16-----------------------|
|----------------------------------12-12-13-------12-14-------12-13-15-12-13-15--------------------------------------|
|-------------------------12----13----------15-15-------13-15--------------------------------------------------------|
|----------11-13-11-13-15----15--------------------------------------------------------------------------------------|
|-11-13-15-----------------------------------------------------------------------------------------------------------|
|
|  PM-----------------------------------------------------------------------------------------------------------------
|  E           E           E           E                 E           E              E           E
|--------------------------------------------------------------------------------------------------------------------|
|--------------------------------------------------------------------------------------------------------------------|
|-10----------10----------10----------10-----------------8-----------8--------------8----------12--------------------|
|-11----------11----------11----------11----------------10----------10-------------10----------13--------------------|
|--------------------------------------------------------------------------------------------------------------------|
|--------------------------------------------------------------------------------------------------------------------|


                                   C5    Bb5
    E   E       E       E   E    E  S    E.
    |   |       |       |   |    |  |    |
    /   /       /       /   /    /  /    /

                ~~~~~~~~~~~~~~~~
   +E.     +S   Q          +Q       E.       +S
|-(16)r===(16)-16pb18=====(16)r----18b20r===(18)--||
|-------------------------------------------------||
|-------------------------------------------------||
|-------------------------------------------------||
|-------------------------------------------------||
|-------------------------------------------------||
|
|-------------------------------|
|   E   E       E       E   E    E  Q
|-------------------------------------------------||
|-------------------------------------------------||
|--12--12------12------12--12---12----------------||
|--13--13------13------13--13---13----------------||
|-------------------------------------------------||
|-------------------------------------------------||


 Interlude
  C5            Bb5  C5              Bb5      C5
   H.         S E.   H.            S E.       W          E. S +E  E +Q   +Q
   |          | |    |             | |        |          |  |  |  |  |    |
   /          / /    /             / /        /          /  /  /  /  /    /

   ~~~~~~                                     ~
   H.         Q      H     S S Q        +E    W          E. S +E  E +H
|-18pb20-----------|------------------------|----------|-8--8-(8)-8-(8)-------|
|------------------|------------------------|----------|-8--8-(8)-8-(8)-------|
|------------------|------------------------|----------|-5--5-(5)-5-(5)-------|
|------------------|------------------------|----------|----------------------|
|------------------|---------1-1b2------(1)-|-3--------|----------------------|
|------------------|------------------------|----------|----------------------|


                                                     Eb5Bb5
   W            W            W            H        S E. Q
                                                     |  |
                                                     /  /

   \1
  +W           +W           +H     H      Q    Q   S E. Q
|-(8)--------|------------|-------------|-------------------||
|------------|------------|-------------|-------------------||
|-(5)--------|-(5)--------|-(5)---------|------------8------||
|------------|------------|-------------|------------8--8---||
|------------|------------|-------------|------------6--8---||
|------------|------------|-------------|----/11\-------6---||


 Out-Chorus
           B5C#F#5           B5  C#F#5           B5C#F#5           B5  C#F#5
  H     E  E E E   Q  Q   S  S E E E   Q  Q   E  E E E   Q  Q   S  S E E E
           | | |   |         | | | |   |         | | |   |         | | | |
           / / /   /         / / / /   /         / / /   /         / / / /

  H     E  E E E   Q  Q   S  S E E E   Q  Q   E  E E E   Q  Q   S  S E E E
|----------------|-------------------|-----------------|--------------------|
|--------------7-|-7---------------7-|-7-------------7-|-7---------------7--|
|----------4-6-6-|-6---------4-4-6-6-|-6---------4-6-6-|-6---------4-4-6-6--|
|----------4-6-4-|-4---------4-4-6-4-|-4---------4-6-4-|-4---------4-4-6-4--|
|----------2-4---|-----------2-2-4---|-----------2-4---|-----------2-2-4----|
|----------------|-------------------|-----------------|--------------------|
|
| Gtr II
| H    +E  E E E   H     +E    E E E   H     +E  E E E   H     +E    E E E
|----------------|-------------------|-----------------|--------------------|
|-7----(7)-7-7-7-|-7-----(7)-----7---|-7-----(7)-7-7-7-|-7-----(7)-----7----|
|-6----(6)-6-6-6-|-6-----(6)---6-6-6-|-6-----(6)-6-6-6-|-6-----(6)---6-6-6--|
|-4----(4)-4-4-4-|-4-----(4)---4---4-|-4-----(4)-4-4-4-|-4-----(4)---4---4--|
|----------------|-------------------|-----------------|--------------------|
|----------------|-------------------|-----------------|--------------------|


            B5C#F#5         B5C#F#5 E5                B5VII
  Q  Q   E  E E E   Q  Q  E E E E   E E E E E E E E   E E E E E E E E
  |         | | |   |       | | |   | | | | | | | |   | | | | | | | |
  /         / / /   /       / / /   / / / / / / / /   / / / / / / / /

                                    PM------------------------------|
  Q  Q   E  E E E   Q  Q  E E E E   E E E E E E E E   E E E E E E E E
|-----------------|---------------|-----------------|------------------|
|-7-------------7-|-7-----------7-|-----------------|------------------|
|-6---------4-6-6-|-6-------4-6-6-|-9-9-9-9-9-9-9-9-|------------------|
|-4---------4-6-4-|-4-------4-6-4-|-9-9-9-9-9-9-9-9-|-9-9-9-9-9-9-9-9--|
|-----------2-4---|---------2-4---|-7-7-7-7-7-7-7-7-|-9-9-9-9-9-9-9-9--|
|-----------------|---------------|-----------------|-7-7-7-7-7-7-7-7--|
|
| H     +E  E E E   W               E E E E E E E E   E E E E Q   Q
|-----------------|---------------|-----------------|------------------|
|-7-----(7)-7-7-7-|-7-------------|-5-----5---5-5---|-4-----4----------|
|-6-----(6)-6-6-6-|-6-------------|-4-4---4-4-4-4-4-|-4-4---4-4---4----|
|-4-----(4)-4-4-4-|-4-------------|-2---2---2-2---2-|-4---4---4---4----|
|-----------------|---------------|-----------------|---------2---2----|
|-----------------|---------------|-----------------|------------------|


  F#5(type 3)        C#5               G#5
  E  E E E E E E E   E E E E E E E E   Q      Q  H
  |  | | | | | | |   | | | | | | | |   |
  /  / / / / / / /   / / / / / / / /   /

                             ~
  E  E E E E E E E   E E Q   H         E +E   Q  S E. E. S
|------------------|-----------------|---------------------|
|-7------7-7-7-7-7-|-6-6-6---6-------|---------------------|
|-6--6-6-6-6-6-6-6-|-6-6-6---6-------|----------------6----|
|-4--4-4-4-4-4-4-4-|-6-6-6---6-------|-6-(6)\------4--6--2-|
|------------------|-4-4-4---4-------|-6-(6)\------4--4--2-|
|------------------|-----------------|-4-(4)\------2-----0-|
|
| ~~                 ~
| H.           Q     W                 E +E   Q  S E. E. S
|------------------|-----------------|---------------------|
|-7------------7---|-----------------|---------------------|
|-6------------6---|-----------------|----------------6----|
|-4------------4---|-----------------|-6-(6)\------4--6--2-|
|------------------|-4---------------|-6-(6)\------4--4--2-|
|------------------|-----------------|-4-(4)\------2-----0-|


   W            W
   ~~~~~~~~~~~~~~~~
  +W           +H     +S  S E E S S
|------------|--------------------------*|
|------------|--------------------------*|
|------------|------------4-4-6---------*|
|-(2)--------|-(2)----(2)-4-4-6-4-6\----*|
|-(2)--------|-(2)----(2)-2-2-4-4-6\----*|
|-(0)--------|-(0)----(0)-------2-4\----*|
|
|  ~~~~~~~~~~~~~~~~
| +W           +H     +S  S E E S S
|------------|--------------------------*|
|------------|--------------------------*|
|------------|------------4-4-6---------*|
|-(2)--------|-(2)----(2)-4-4-6-4-6\----*|
|-(2)--------|-(2)----(2)-2-2-4-4-6\----*|
|-(0)--------|-(0)----(0)-------2-4\----*|
Добавлено: 28.02.2012
Другие материалы по этой песне:

Страница создана 28.02.2012
http://primanota.ru/def-leppard/lets-get-rocked-chords.htm
Привет, Гость.
Предлагаем пройти революционный курс по гитаре.
Подарок от PrimaNota.Ru, забирай!