PrimaNota.ru - самый крупный в мире бесплатный архив песенных текстов, аккордов, табулатур и нот


Def Leppard - Make Love Like A Man - текст песни, бас-таба, видео

Регистрация Запомнить меня
Войти через:  Facebook Google Twitter Vk Yandex Mail.ru

Def Leppard - Make Love Like A Man - текст песни, бас-таба, видео

Печатать
Просмотров: 191
Авторы: Phil Collen, Robert John “Mutt” Lange, Joe Elliott, Steve Clark

this song is tuned like C,A,D,G so ur top string is down in c

intro/chours
|---------------|
|---------------|                            
|5*-3----3---3-5|
|-----7*---7*---|

in the 1st verse there is no bass

pre chours
|---------------------------------------|
|---------------------------------------| X4
|---------------------------------------|
|x7x7-9-9-9-9-9-9-9-9-7b-9-9-9-9-9-9-9-9|
"dont call me jigalo...."

intro/chorus X2

2nd verse
|-----------------------------------------|
|-----------------------------------------| X2
|--------------------------------3---3--55|
|2-2-2-2-2-2-2-0-2-2-2-2-2-2-2-2---7---2--|

pre chours

verse/chorus X2
|----------------------------------------|
|-----------------------------5h7-5h7----|
|----------5--------------------------7-5| X4
|7h9-999999-9-9999997h9-999999-----------|

solo
|----------|
|----------| X3
|5-3-0-----|
|------x7x7|

|---------|
|---------|
|5-3-0-000|
|---------|

veres 3
|------------------|
|------------------|X8
|3h5555555555555555|
|------------------|

pre chours

chours X2

end chours
|------------------------------------------------|
|------------------------------------------------|X8
|55555555555555553333333333333333----------------|
|--------------------------------7777777777777777|

|---------------|
|---------------|
|3-5-----03030-5|
|---------------|
Добавлено: 26.07.2012
Другие материалы по этой песне:

Страница создана 05.04.2012
http://primanota.ru/def-leppard/make-love-like-a-man-chords.htm
Привет, Гость.
Предлагаем пройти революционный курс по гитаре.
Подарок от PrimaNota.Ru, забирай!