PrimaNota.ru - самый крупный в мире бесплатный архив песенных текстов, аккордов, табулатур и нот


Dark Funeral - The Secrets Of The Black Arts - аккорды и текст, таба, видео

Регистрация Запомнить меня
Войти через:  Facebook Google Twitter Vk Yandex Mail.ru

Dark Funeral - The Secrets Of The Black Arts - аккорды и текст, таба, видео

Печатать
Просмотров: 180
The Secrets Of The Black Arts
Dark Funeral
		   ...Brasil, Dezembro de 2002...
Transcrevida por: Tales He-mann / Ijuí/RS - Brasil
Artista: Dark Funeral
Música: The Secrets of the Black Arts
Disco: The Secrets of the Black Arts
Afinação: Normal

Legenda:
p=pull-off
h=hammer-on
/=slide
pm=palm mute
..=tremelo picking
T =tapping
T/=tap slide
D=drop whammy Bar




  RIFF 1   2x  (guitarras 1 e 2)
e|----------------|----|
B|----------------|----|
G|7777101010105555|3333|
D|7777101010105555|5555|
A|55558-8-8-8-3333|5555|
E|----------------|----|
                  | OU |
                  |----|
                  |----|
                  |----|
                  |5555|
                  |5555|
                  |3333|


  RIFF 2    (2x com as duas guitarras)
e|-------------------------------------------------|
B|-------------------------------------------------|
G|-------------------------------------------------|
D|---7"--------10"------------5"-------------------|
A|5"---8"-7"-8"----11"-10"-3"---6"-5"----5"--------|
E|------------------------------------3"---6"-5"---|

2ª PARTE =>### 3ªx a 4ªx ,GUITARRA 2 repete RIFF 1(mais lento)
acompanhando a guitarra 1 que continua com o RIFF 2 (tudo isso 2x) ####




  RIFF 3  4x  (CORRIDO)
e|---------------------------------------------|
B|---------------------------------------------|
G|----------------------8-8-8-8-8--7-7-7-7-7---|
D|8-8-8-8-8--7-7-7-7-7--8-8-8-8-8--7-7-7-7-7---|
A|8-8-8-8-8--7-7-7-7-7--6-6-6-6-6--5-5-5-5-5---|
E|6-6-6-6-6--5-5-5-5-5-------------------------|



  Riff 4  4x (GUITARRA 1)
e|-----------------------------|
B|-----------------------------|
G|-5""------------5""4""-------|
D|-----6""5""3""--------5""----|
A|-----------------------------|
E|-----------------------------|
 | GUITARRA 2                  |
e|-----------------------------|
B|-----------------------------|
G|-----------------------------|
D|-5555555555555554444444444---|
A|-3333333333333332222222222---|
E|-3333333333333332222222222---|



  Riff 5  4x  (GUITARRA 1)         ||       4 x                   ||
e|---------------------------------||-----------------------------||
B|---------------------------------||-----------------------------|||
G|-8""5""7""-----8""5""7"""""------||-----------------------------||||
D|-------------5""-----------------||-----------------------------|||||
A|---------------------------------||-6""3""5""""6""3""5""""------||||||
E|---------------------------------||-----------------------------|||||||REPETE 2x
 | GUITARRA 2                      ||                             ||||||
e|---------------------------------||-----------------------------|||||
B|---------------------------------||-----------------------------||||
G|-888855557777777888855557777777--||-----------------------------|||
D|-666633335555555666633335555555--||88885555777777888855557777777||
A|-666633335555555666633335555555--||66663333555555666633335555555||
E|---------------------------------||66663333555555666633335555555||





  Riff 6 (GUITARRA 1)|  | GUITARRA 2 (na seqüencia)-||
e|-------------------|=>|---------------------------|||
B|-------------------|=>|---------------------------||||
G|-7""---------------|=>|---------------------------|||||REPETE 4x
D|-------------5""---|=>|--5""----------------------||||
A|-----5""6""--------|=>|--------------3""----------|||
E|-------------------|=>|-------3""4""--------------||


  ****=>=>=> REPETE "RIFF 2" AO CONTRÁRIO  = = =****


  Riff 7 (FINAL) 8x (as 1ªs 2x um pouco mais lento)
e|--------------------------||
B|--------------------------||
G|-77777777777--------------||
D|-7777777777766666666666---||
A|-5555555555566666666666---||
E|------------44444444444---||     
Добавлено: 05.07.2013
Другие материалы по этой песне:

Страница создана 28.02.2012
http://primanota.ru/dark-funeral/the-secrets-of-the-black-arts-chords.htm
Привет, Гость.
Предлагаем пройти революционный курс по гитаре.
Подарок от PrimaNota.Ru, забирай!