PrimaNota.ru - самый крупный в мире бесплатный архив песенных текстов, аккордов, табулатур и нот


Dark Funeral - Ravenna Strigoi Mortii - аккорды и текст, таба, видео

Регистрация Запомнить меня
Войти через:  Facebook Google Twitter Vk Yandex Mail.ru

Dark Funeral - Ravenna Strigoi Mortii - аккорды и текст, таба, видео

Печатать
Просмотров: 199
Ravenna Strigoi Mortii
Dark Funeral
		   "Ravenna Strigoi Mortii" as performed by Dark Funeral on their 1998
 superalbum "Vobiscum Satanas"
________________________________________________________
Tabbed by Arjan (upir@gmx.net) on 2 and 16 December 1998
¯¯¯¯¯¯¯¯¯¯¯¯¯¯¯¯¯¯¯¯¯¯¯¯¯¯¯¯¯¯¯¯¯¯¯¯¯¯¯¯¯¯¯¯¯¯¯¯¯¯¯¯¯¯¯¯
Total Time: 4:22

Normal Tuning (EADGBe)

Note: I've managed to tab everything, but you'll have to figure out for yourself
how many times and when every riff is played. Also listen to the album for rhythm.

INTRO
e|----------------------------------------------------------------------|
B|----------------------------------------------------------------------|
G|----------------------------------------------------------------------|
D|-9---5---7--8--8--9---8---7-------9---5---7--8--3---2--3---2----------|
A|-9---5---7--8--8--9---8---7-------9---5---7--8--3---2--3---2----------|
E|-7---3---5--6--6--7---6---5-------7---3---5--6--1---0--1---0----------|

e|------------------------|
B|------------------------|
G|------------------------|
D|-11----------11----7----|
A|-11----------11----7----|
E|--9-----------9----5----|

SOLO RIFF THING 1
e|-------------------------------------------
B|-------------------------------------------
G|-------------------------------------------
D|-11----13-14-13-11-10-11----14-13-11-10----
A|----------------------------------------14-
E|-------------------------------------------

  --------------------------------------------|
  --------------------------------------------|
  --------------------------------------------|
  --------------------------------------------|
  -12----14-15-14-12-11-12----15-14-12-11-----|
  -----------------------------------------13-|

SOLO RIFF THING 2
e|---------------------------------|
B|---------------------------------|
G|---------------------------------|
D|---9----8---12---9---------------|
A|---------------------9---8---5---|
E|---------------------------------|

e|---------------------------------|
B|---------------------------------|
G|---------------------------------|
D|---13----12---16---13------------|
A|----------------------9---8------|
E|---------------------------------|

intro is played

e|-----------------------------------------------|
B|-----------------------------------------------|
G|-----------------------------------------------|
D|-11------10-11-----13--14------15--14--10------|
A|-11------10-11-----13--14------15--14--10------|
E|--9-------8--9-----11--12------13--12---8------|

FINAL CHORD
e|-----|
B|-----|
G|-----|
D|-11--|
A|-11--|
E|--9--|     
Добавлено: 05.12.2013
Другие материалы по этой песне:

Страница создана 07.03.2012
http://primanota.ru/dark-funeral/ravenna-strigoi-mortii-chords.htm
Привет, Гость.
Предлагаем пройти революционный курс по гитаре.
Подарок от PrimaNota.Ru, забирай!