PrimaNota.ru - самый крупный в мире бесплатный архив песенных текстов, аккордов, табулатур и нот


Dark Funeral - Salva Satan - таба, видео

Регистрация Запомнить меня
Войти через:  Facebook Google Twitter Vk Yandex Mail.ru

Dark Funeral - Salva Satan - таба, видео

Печатать
Просмотров: 138
Band- Dark Funeral
Song- Salva satan

tune domn to Cis

INTRO
  Am                       Asm                      Am                        git2
||------------------------|------------------------|------------------------| git1
||------------------------|------------------------|------------------------|
||%-------9-------9-------|--------8-------8-------|--------9-------9-------|
||%---10------10------10--|----9-------9-------9---|----10------10------10--|
||12----------------------|11----------------------|12----------------------|
||------------------------|------------------------|------------------------|
 |Em         1./2./3. time  Em                4.time
 |------------------------||------------------------||
 |------------------------||------------------------||
 |-----------------------%||------------------------||
 |--------9-------9------%||--------9---pause-------||
 |----10------10------10--||----10------------------||
 |12----------------------||12----------------------||
        
  RIFF1
  Am           Asm          Am           Em
||------------|------------|------------|------------||
||------------|------------|------------|------------||
||-9----------|-8----------|-9----------|------------||
||10----------|-9----------|10----------|-9----------||
||12----------|11----------|12----------|10----------||
||------------|------------|------------|12----------||

  RIFF2
  Asm              Am               Asm          
||----------------|----------------|-------------------|
||----------------|----------------|-------------------|
||%--------8------|----9---5-------|---------8---------|
|%6-----------9---|7-----------7---|6-------------6----|
||----------------|----------------|-------------------|
||----------------|----------------|-------------------|
 |Am  1./2./3.time            4.time
 |----------------||----------------||
 |----------------||----------------||
 |----9---5------%||----------------||
 |7-----------7--%||10----9-----7---||
 |----------------||----------------||
 |----------------||----------------||

 RIFF3A                              3 times
||----------------|----------------||-------------------|----------------||
||----------------|----------------||-------------------|----------------||
||%---------------|---------------%||-------------------|----------------||
|%Asm-------------|Am-------------%||Asm----------------|10----9-----7---||
||----------------|----------------||-------------------|----------------||
||----------------|----------------||-------------------|----------------||

 RIFF3B                              3 times
||----------------|----------------||-------------------|----------------||
||----------------|----------------||-------------------|----------------||
||%---------------|---------------%||-------------------|----------------||
|%Asm-------------|Am-------------%||Em-----------------|G---------------||
||----------------|----------------||-------------------|----------------||
||----------------|----------------||-------------------|----------------||

 RIFF4         1.time     2.time
||----|----|----|----||----|----||
||%---|----|----|---%||----|----||
||%---|----|----|---%||----|----||
||Am--|Dm--|Am--|Cism||Cm--|Cism||
||----|----|----|----||----|----||
||----|----|----|----||----|----||

 RIFF5
||----------------|----------------|-------------------|----------------||
||----------------|----------------|-------------------|----------------||
||----------------|----------------|-------------------|----------------||
||Fism------------|Fism----Cism----|Dm-----------------|Dm-----Cism-----||
||----------------|----------------|-------------------|----------------||
||----------------|----------------|-------------------|----------------||

 RIFF6
  Cism              Gism              
||--------|--------|--------|--------|
||--------|--------|--------|--------|
||--------|6-------|--------|4-------|
||--------|----6---|--------|----6---|
||4---7---|--------|----6---|--------|
||--------|--------|4-------|--------|
 |
 |Cism         Gism Cm
 |--------|--------|--------|--------||
 |--------|--------|--------|--------||
 |--------|6-------|--------|5-------||
 |--------|--------|--------|----5---||
 |4---7---|--------|3---6---|--------||
 |--------|----4---|--------|--------||  
Добавлено: 10.04.2012
Другие материалы по этой песне:
  • Аккорды и текст

Страница создана 10.04.2012
http://primanota.ru/dark-funeral/salva-satan-chords.htm
Привет, Гость.
Предлагаем пройти революционный курс по гитаре.
Подарок от PrimaNota.Ru, забирай!