PrimaNota.ru - самый крупный в мире бесплатный архив песенных текстов, аккордов, табулатур и нот


Dark Funeral - Enriched By Evil - аккорды и текст, таба, видео

Регистрация Запомнить меня
Войти через:  Facebook Google Twitter Vk Yandex Mail.ru

Dark Funeral - Enriched By Evil - аккорды и текст, таба, видео

Печатать
Просмотров: 178
Enriched By Evil
Dark Funeral
		   "Enriched By Evil" as performed by Dark Funeral on their 1998
 album "Vobiscum Satanas"

___________________________________________________________
TRANSCRIBED BY ARJAN (arjanbarman@hotmail.com) 18 July 2000
¯¯¯¯¯¯¯¯¯¯¯¯¯¯¯¯¯¯¯¯¯¯¯¯¯¯¯¯¯¯¯¯¯¯¯¯¯¯¯¯¯¯¯¯¯¯¯¯¯¯¯¯¯¯¯¯¯¯¯

Normal fucking tuning

Enriched By Evil
Music by Lord Ahriman & Typhos
Lyrics by Emperor Magus Caligula

Riff 1, tremolo picking. Guitar 2 plays the power chords above
the tablines
   C#5     A5      C#5     C5
e|---------------------------------|
B|---------------------------------|
G|---------------------------------|
D|---7-6-7-----------7-6-7---6-5---|
A|-4---------7-5---4-------3-----7-|
E|---------5-----8-----------------|

Riff 2, tremolo picking
e|---------------------------------|
B|---------------------------------|
G|---------------------------------|
D|-6-------9-----------------------|
A|-4-------7-------9-------8--9----|
E|-----------------7-------6--6----|
"Satan - Angel of darkness carry me through the seventh gate.
Take me to the regions of evil, let your flames surround my soul."

Play riff 1
Play riff 2
"I have given you my mortal life, I wear your marks with pride.
You were the razor in my flesh, now take my blackened soul.
Enrich me with the powers of evil, let me stand by your throne.
Let me become a soldier of darkness, for you I'll raise my sword."

Riff 4, tremolo picking all the way
   1 2 3 4 1 2 3 4 1 2 3 4 1 2 3 4 1 2 3 4 1 2 3 4 1 2 3 4 1 2 3 4
e|-----------------------------------------------------------------|
B|-----------------------------------------------------------------|
G|-----------------------------------------------------------------|
D|-7-------6---4---6---------------7-------6---7---6---------------|
A|-----------------------------------------------------------------|
E|-----------------------------------------------------------------|

e|-----------------------------------------------------------------|
B|-----------------------------------------------------------------|
G|-----------------------------------------------------------------|
D|-7-------6---4---6---------------4-------------------------------|
A|-----------------------------------------7---6---4---------------|
E|-----------------------------------------------------------------|
"I am the one, let me be your son,
a prince of evil, father.
I am the one, let me be your son,
a prince of evil, Satan."

Bridge-thing or something 1, just play F#5 and F5 power chords, one
guitar high and one low, should sound okay...
D|-11----10-----|
A|--9-----8-----|
E|--------------|
 |              |
D|--------------|
A|--4-----3-----|
E|--2-----1-----|

Play riff 2
"In my heart your black flame burns.
My eyes are cold as death, my blood is rivers of hate
I am the very essence of evil!!!!"

Play riff 1
"Evil!!!"

Bridge-thing 2, just play C#5 and high E5 power chords
e|-----------|
B|-----------|
G|-----------|
D|-6----9----|
A|-4----7----|
E|-----------|
"Your wings will carry me through the darkened skies.
Far beyond the realms where light no more shines.
My eyes reflect your flame,
forever I will remain."

Play riff 4
"I am the one, let me be your son,
a prince of evil, father.
I am the one, let me be your son,
a prince of evil, Satan."

Ending
e|-------------------|
B|-------------------|
G|-------------------|
D|-4---------------6-|
A|---------7---6---4-|
E|-------------------|     
Добавлено: 03.08.2013
Другие материалы по этой песне:

Страница создана 30.05.2012
http://primanota.ru/dark-funeral/enriched-by-evil-chords.htm
Привет, Гость.
Предлагаем пройти революционный курс по гитаре.
Подарок от PrimaNota.Ru, забирай!