PrimaNota.ru - самый крупный в мире бесплатный архив песенных текстов, аккордов, табулатур и нот


Daniela Andrade - Dark Passenger - аккорды и текст, таба, видео

Регистрация Запомнить меня
Войти через:  Facebook Google Twitter Vk Yandex Mail.ru

Daniela Andrade - Dark Passenger - аккорды и текст, таба, видео

Печатать
Просмотров: 114
Dark Passenger
Daniela Andrade
-------------------------------------------------------------------------------
                             SONG NAME - Band Name
-------------------------------------------------------------------------------
Tabbed by: Milllk
E-mail:MILLE0712@hotmail.com

I know Daniela plays with a cabo, but I didn't have one when I was figuring it 
out, and I also like this version. But you can just transpose if you'd like:)
Enjoy;)

Chords used:
Gm (355333)
Em7b5 (xx2333)
Cm (335543)
F (133211)

Intro

e|---------------------------------------------------------------------------|
B|-----------3----------------------3----------------------4-----------------|
G|-------------~3--------------0-------~3--------------5---------------------|
D|-------------------------------------------------5-------------------------|
A|-------0-------------------------------------3-----------------------------|
E|---3-------------------0---------------------------------------------------|

e|-------------------------------------------------3-------------------------|
B|----------------------------------3-------------3--------------------------|
G|---------------------------------------3-------3---------------------------|
D|---------------0-----------------------------------------------------------|
A|------0----1----------------0----------------------------------------------|
E|--1--------------------3---------------------------------------------------|

Verse 1
        Gm                   Em7b5               
You were a call, that I couldn't put down
        Cm                      F
You stayed in my mind, late into the night
      Gm
My dark passenger
     Gm                       Em7b5
It's a war in my mind, as you sharpen the blades
     Cm                         F
I tried being good, but it's not as good
     Gm
As being insane


Chorus
                    Cm             F
Could you tell me if I had a chance to be free?
                    Cm             F       Gm
'Cause it burns every hour of every day, being me


Verse 2 (same as verse 1)
        Gm                        Em7b5        
I've got pockets of ease, I've got slides of decay
        Cm                      F
Got a mind full of people that I once loved
    Gm
And betrayed
        Gm                   Em7b5        
I go looking for fear, down the alleys and homes
        Cm                      F
It's a war in my mind, but I can't shake off
        Gm
The joy in my bones


Chorus 
        Cm                         F
Could you tell me if I had a chance to be free?
                   Cm                   F
'Cause I know I can love, I know that I'm doing
        Gm
More harm to me
            Cm
It's the flashbacks, the blood
            F
It's an essential need
           Cm                       F
I've gotta get back to the boy that was taken
  Gm
From me


Gm  Em7b5  Cm  F  Gm x2
Oooohhhhh x2

Outro 
        Gm                   Em7b5        
You were a call, that I couldn't put down
        Cm                      F
You stayed in my mind, late into the night
    Gm
My dark passenger




************************************

| /   slide up
| \   slide down
| h   hammer-on
| p   pull-off
| ~   vibrato
| +   harmonic
| x   Mute note
| b   Bend
| pb  Pre-bend
| br  Bend release
| pbr Pre-bend release
| brb Bend release bend

************************************
Добавлено: 30.06.2015
Другие материалы по этой песне:
  • Аккорды и текст

Страница создана 30.06.2015
http://primanota.ru/daniela-andrade/dark-passenger-chords.htm
Привет, Гость.
Предлагаем пройти революционный курс по гитаре.
Подарок от PrimaNota.Ru, забирай!