PrimaNota.ru - самый крупный в мире бесплатный архив песенных текстов, аккордов, табулатур и нот


Daniela Andrade - Goodbye - таба, видео

Регистрация Запомнить меня
Войти через:  Facebook Google Twitter Vk Yandex Mail.ru

Daniela Andrade - Goodbye - таба, видео

Печатать
Просмотров: 160
-------------------------------------------------------------------------------
                            GOODBYE - DANIELA ANDRADE
-------------------------------------------------------------------------------
Tabbed by: thaoencounters
Check out Daniela's music! https://www.youtube.com/user/DanielaSings
SONG: https://www.youtube.com/watch?v=PomcpQ7FlhY

Tuning: Standard CAPO ON 6TH FRET

INTRO/VERSE:

     C                           Em                      Am7
e|---------------------------------------------------------------------------|
B|---------------------------------------------------------------------------|
G|------------0---------------------------0-----------------------0----------|
D|------2--------2------------------2--------2--------------2--------2-------|
A|---3-----3--------3------------2-----2--------2--------0-----0--------0----|
E|---------------------------------------------------------------------------|

     PART X                    F(strum D UDU UDU UDU)      G(strum D UDU UDU UDU - Back 
                                                                   to picking C pattern)
e|-----------------------------0------------------------------3--------------|
B|-----------------------------1------------------------------0--------------|
G|---2--0----------------------2------------------------------0--------------|
D|---------3--2-------------3--3------------------------------0--------------|
A|------------------------------------------------------------2--------------|
E|---------------------------------------------------------3--3--------------|

For the verse you can either strum the chords (to make it more simple) or, pick the 
strings like shown above.

C           Em              Am7
Swore to myself that I'd be fine
           (PART X)
don't know what to do 'cause
F                      G
baby, I've missed you lately


C                Em            Am7
But maybe you've taken someone new
            (PART X)
but I still think about you
F                     G
baby, I've missed you lately


Am     Em               F                                Am
And if time were on our side, could you tell me one more lie
             Em                    F
that we were perfect, yeah we were right
                        Am   Em         F
that it wasn't just goodbye-hyee-hye-ay
                Am    Em         F....
wasn't just goodbye-hyee-hye-ay


**Small intrumental -PICK INTRO-**
     C                           Em                      Am7
e|---------------------------------------------------------------------------|
B|---------------------------------------------------------------------------|
G|------------0---------------------------0-----------------------0----------|
D|------2--------2------------------2--------2--------------2--------2-------|
A|---3-----3--------3------------2-----2--------2--------0-----0--------0----|
E|---------------------------------------------------------------------------|

     PART X                    F(strum D UDU UDU UDU)      G(strum D UDU UDU UD)
e|-----------------------------0------------------------------3--------------|
B|-----------------------------1------------------------------0--------------|
G|---2--0----------------------2------------------------------0--------------|
D|---------3--2-------------3--3------------------------------0--------------|
A|------------------------------------------------------------2--------------|
E|---------------------------------------------------------3--3--------------|


C           Em              Am7
Swore to myself that I'd be fine
           (PART X)
don't know what to do 'cause
F                      G
baby, I've missed you lately


C             Em               Am7
But maybe you've taken someone new
              (PART X)
and you'll be thinking 'bout me
F                        G
baby, have you missed me lately?


Am     Em               F                               Am
And if time were on our side, I would tell you one more lie
             Em                    F
that we were perfect, yeah we were right
                        Am   Em         F
that it wasn't just goodbye-hyee-hye-ay
                Am   Em         F....
wasn't just goodbye-hyee-hye-ay


This is goodbye.

     C                           Em                      Am7
e|---------------------------------------------------------------------------|
B|---------------------------------------------------------------------------|
G|------------0---------------------------0-----------------------0----------|
D|------2--------2------------------2--------2--------------2--------2-------|
A|---3-----3--------3------------2-----2--------2--------0-----0--------0----|
E|---------------------------------------------------------------------------|

     PART X                    F(strum D UDU UDU UDU)      G(strum D UDU..) - let the 
chord ring out
e|-----------------------------0------------------------------3--------------|
B|-----------------------------1------------------------------0--------------|
G|---2--0----------------------2------------------------------0--------------|
D|---------3--2-------------3--3------------------------------0--------------|
A|------------------------------------------------------------2--------------|
E|---------------------------------------------------------3--3--------------|
Добавлено: 30.06.2015
Другие материалы по этой песне:
  • Аккорды и текст

Страница создана 30.06.2015
http://primanota.ru/daniela-andrade/goodbye-chords.htm
Привет, Гость.
Предлагаем пройти революционный курс по гитаре.
Подарок от PrimaNota.Ru, забирай!