PrimaNota.ru - самый крупный в мире бесплатный архив песенных текстов, аккордов, табулатур и нот


Daniela Andrade - Hotline Bling - таба, видео

Регистрация Запомнить меня
Войти через:  Facebook Google Twitter Vk Yandex Mail.ru

Daniela Andrade - Hotline Bling - таба, видео

Печатать
Просмотров: 134
-------------------------------------------------------------------------------
                 Hotline Bling (Cover) by Daniela Andrade
-------------------------------------------------------------------------------
Tabbed by:LiveRur

Tuning:Standard

Capo 5

Chorus

e|------------------------------------------------------------------------------|
B|------------------------------------------------------------------------------|
G|------------------------0-------------------------------0---------------------|
D|------------------------4-------------------------------4---------------------|
A|------------------------2-------------------------------2---------------------|
E|------------------------3-------------------------------0---------------------|

You used to call me on my cell phone, late night when you need my love 

e|------------------------------------------------------------------------------|
B|------------------------------------------------------------------------------|
G|-------------0-------------------------------0--------------------------------|
D|-------------4-------------------------------4--------------------------------|
A|-------------2-------------------------------2--------------------------------|
E|-------------3-------------------------------0--------------------------------|

 Call me on my cell phone, late night when you need my love 


e|------------------------------------------------------------------------------|
B|------------------5-----------------------------------------------------------|
G|------------------4-----------------------------------------------------------|
D|------------------5---------------------------4-------------------------------|
A|------------------3---------------------------3-------------------------------|
E|----------------------------------------------5-------------------------------|
 
  I know when that hotline bling, that can only mean one thing 

e|------------------------------------------------------------------------------|
B|------------------5-----------------------------------------------------------|
G|------------------4-----------------------------------------------------------|
D|------------------5---------------------------4-------------------------------|
A|------------------3---------------------------3-------------------------------|
E|----------------------------------------------5-------------------------------|
 
  I know when that hotline bling, that can only mean one thing 


Verse 1

e|------------------------------------------------------------------------------|
B|------------------------------------------------------------------------------|
G|-----------------------------0------------------------------------0-----------|
D|-----------------------------4------------------------------------4-----------|
A|-----------------------------2------------------------------------2-----------|
E|---------------------0h3-3---3-------------------------0----------0-----------|

Ever since I left the city you, got a reputation for yourself now


e|------------------------------------------------------------------------------|
B|-------------------------------5----------------------------------------------|
G|-------------------------------4----------------------------------------------|
D|-------------------------------5--------------------------------------------4-|
A|-------------------------3-----3--------------------------------------------3-|
E|-------------------------------------------------------------------5--------5-|

Everybody knows and I feel left out, boy you got me down, you got me stressed out
Cause ever since I left the city

e|------------------------------------------------------------------------------|
B|------------------------------------------------------------------------------|
G|----0-------------------------------------------0-----------------------------|
D|----4-------------------------------------------4-----------------------------|
A|----2-------------------------------------------2-----------------------------|
E|-3--3----------------------------------0--------0-----------------------------|

  You     started talking less and goin' out more


e|-------------------------------------------------------------------------------|
B|------------------------------------------5------------------------------------|
G|------------------------------------------4------------------------------------|
D|------------------------------------------5------------------------------------|
A|-------------------------------3----------3------------------------------------|
E|-------------------------------------------------------------------------------|

Glasses of champagne out on the dance floor 

e|-------------------------------------------------------------------------------|
B|-------------------------------------------------------------------------------|
G|-------------------------------------------------------------------------------|
D|-----------------------------------------4-------------------------------------|
A|-----------------------------------------3-------------------------------------|
E|---------------------------------5-------5-------------------------------------|

Hangin' with some girls I've never seen before

Chorus 

e|-------------------------------------------------------------------------------|
B|-------------------------------------------------------------------------------|
G|-----------------------------------0-------------------------0-----------------|
D|-----------------------------------4-------------------------4-----------------|
A|-----------------------------------2-------------------------2-----------------|
E|------------------------0h3--------3--------------------0----0-----------------|

You used to call me on my cell phone, late night when you need my love 

e|-------------------------------------------------------------------------------|
B|-------------------------------------------------------------------------------|
G|-----------------------0--------------------------0----------------------------|
D|-----------------------4--------------------------4----------------------------|
A|-----------------------2--------------------------2----------------------------|
E|-------------3---------3---------------------0----0----------------------------|

 Call me on my cell phone, late night when you need my love 


e|-------------------------------------------------------------------------------|
B|-------------------------5-----------------------------------------------------|
G|-------------------------4-----------------------------------------------------|
D|-------------------------5-----------------------------4-----------------------|
A|------------------3------3-----------------------------3-----------------------|
E|----------------------------------------------5--------5-----------------------|
 
  I know when that hotline bling, that can only mean one thing

e|-------------------------------------------------------------------------------|
B|-------------------------5-----------------------------------------------------|
G|-------------------------4-----------------------------------------------------|
D|-------------------------5-----------------------------4-----------------------|
A|------------------3------3-----------------------------3-----------------------|
E|----------------------------------------------5--------5-----------------------|
 
  I know when that hotline bling, that can only mean one 

Verse 2 

e|-------------------------------------------------------------------------------|
B|-------------------------------------------------------------------------------|
G|------------------------------0--------------------------------------------0---|
D|------------------------------4--------------------------------------------4---|
A|------------------------------2--------------------------------------------2---|
E|----------------------0h3-3---3----------------------------------0---------0---|

Ever since I left the city, you, you, you   You and me we just don't get along

e|-------------------------------------------------------------------------------|
B|------------------------------5------------------------------------------------|
G|------------------------------4------------------------------------------------|
D|------------------------------5------------------------------------------4-----|
A|----------------------3-------3------------------------------------------3-----|
E|------------------------------------------------------------5------------5-----|

You make me feel like I did you wrong, going places where you don't belong

e|-------------------------------------------------------------------------------|
B|-------------------------------------------------------------------------------|
G|------------------------------0------------------------------------0-----------|
D|------------------------------4------------------------------------4-----------|
A|------------------------------2------------------------------------2-----------|
E|--------------------------3---3---------------------------0--------0-----------|

Ever since I left the city, you    You got exactly what you asked for


e|---------------------------------------------------------------------------------|
B|-----------------------------------5---------------------------------------------|
G|-----------------------------------4---------------------------------------------|
D|-----------------------------------5--------------------------------------------4|
A|---------------------------3-------3--------------------------------------------3|
E|------------------------------------------------------------------------5-------5|

Running out of pages in your passport, hanging with some girls I've never seen before

Chorus 

e|--------------------------------------------------------------------------------|
B|--------------------------------------------------------------------------------|
G|-----------------------------------0-------------------------0------------------|
D|-----------------------------------4-------------------------4------------------|
A|-----------------------------------2-------------------------2------------------|
E|------------------------0h3--------3--------------------0----0------------------|

You used to call me on my cell phone, late night when you need my love 

e|--------------------------------------------------------------------------------|
B|--------------------------------------------------------------------------------|
G|-----------------------0--------------------------0-----------------------------|
D|-----------------------4--------------------------4-----------------------------|
A|-----------------------2--------------------------2-----------------------------|
E|-------------3---------3---------------------0----0-----------------------------|

 Call me on my cell phone, late night when you need my love 


e|--------------------------------------------------------------------------------|
B|-------------------------5------------------------------------------------------|
G|-------------------------4------------------------------------------------------|
D|-------------------------5-----------------------------4------------------------|
A|------------------3------3-----------------------------3------------------------|
E|----------------------------------------------5--------5------------------------|
 
  I know when that hotline bling, that can only mean one thing 

e|--------------------------------------------------------------------------------|
B|-------------------------5------------------------------------------------------|
G|-------------------------4------------------------------------------------------|
D|-------------------------5-----------------------------4------------------------|
A|------------------3------3-----------------------------3------------------------|
E|----------------------------------------------5--------5------------------------|
 
  I know when that hotline bling, that can only mean one 

Bridge

These days, all I do is

e|--------------------------------------------------------------------------------|
B|---------------5----------------------------------------------------------------|
G|---------------4----------------------------------------------------------------|
D|---------------5----------------------------------------------------------------|
A|-3-------------3----------------------------------------------------------------|
E|--------------------------------------------------------------------------------|

   Wonder if you bendin' over backwards for someone else

e|--------------------------------------------------------------------------------|
B|--------------------------------------------------------------------------------|
G|--------------------------------------------------------------------------------|
D|----------------4---------------------------------------------------------------|
A|----------------3---------------------------------------------------------------|
E|-5--------------5---------------------------------------------------------------|
  
   Wonder if your rollin' backwoods for someone else

e|--------------------------------------------------------------------------------|
B|--------------------------------------------------------------------------------|
G|--------------------------------------------------------------------------------|
D|----------------4---------------------------------------------------------------|
A|----------------2---------------------------------------------------------------|
E|-3--------------3---------------------------------------------------------------|

   Doing things I taught you gettin' nasty for someone else

e|--------------------------------------------------------------------------------|
B|--------------------------------------------------------------------------------|
G|-----------------0--------------------------------------------------------------|
D|-----------------7--------------------------------------------------------------|
A|-----------------6--------------------------------------------------------------|
E|-8---------------8--------------------------------------------------------------|

   You don't need no one else, you don't need nobody else 
e|--------------------------------------------------------------------------------|
B|---------------5----------------------------------------------------------------|
G|---------------4----------------------------------------------------------------|
D|---------------5----------------------------------------------------------------|
A|-3-------------3----------------------------------------------------------------|
E|--------------------------------------------------------------------------------|

   Wonder if you bendin' over backwards for someone else

e|--------------------------------------------------------------------------------|
B|--------------------------------------------------------------------------------|
G|--------------------------------------------------------------------------------|
D|----------------4---------------------------------------------------------------|
A|----------------3---------------------------------------------------------------|
E|-5--------------5---------------------------------------------------------------|
  
   Wonder if your rollin' backwoods for someone else

e|--------------------------------------------------------------------------------|
B|--------------------------------------------------------------------------------|
G|--------------------------------------------------------------------------------|
D|----4---------------------------------------------------------------------------|
A|----2---------------------------------------------------------------------------|
E|-3--3---------------------------------------------------------------------------|

    I taught you gettin' nasty for someone else

e|--------------------------------------------------------------------------------|
B|--------------------------------------------------------------------------------|
G|-----------------0--------------------------------------------------------------|
D|-----------------7--------------------------------------------------------------|
A|-----------------6--------------------------------------------------------------|
E|-8---------------8--------------------------------------------------------------|

  You don't need no one else


Outro

e|--------------------------------------------------------------------------------|
B|--------------------------------------------------------------------------------|
G|-----------------------------------0-------------------------0------------------|
D|-----------------------------------4-------------------------4------------------|
A|-----------------------------------2-------------------------2------------------|
E|------------------------3----------3--------------------0----0------------------|

You used to call me on my cell phone, late night when you need my love 

e|--------------------------------------------------------------------------------|
B|--------------------------------------------------------------------------------|
G|-----------------------0--------------------------0-------0---------------------|
D|-----------------------4--------------------------4-------4---------------------|
A|-----------------------2--------------------------2-------2---------------------|
E|-------------3---------3---------------------0----0-------0---------------------|

 Call me on my cell phone, late night when you need my love 




To understand the rhythm, listen to the song: https://m.youtube.com/watch?v=0WTjbv-x6D8

************************************

| /   slide up
| \   slide down
| h   hammer-on
| p   pull-off
| ~   vibrato
| +   harmonic
| x   Mute note
| b   Bend
| pb  Pre-bend
| br  Bend release
| pbr Pre-bend release
| brb Bend release bend

************************************
Добавлено: 06.03.2016
Другие материалы по этой песне:
  • Аккорды и текст

Страница создана 06.03.2016
http://primanota.ru/daniela-andrade/hotline-bling-chords.htm
Привет, Гость.
Предлагаем пройти революционный курс по гитаре.
Подарок от PrimaNota.Ru, забирай!