PrimaNota.ru - самый крупный в мире бесплатный архив песенных текстов, аккордов, табулатур и нот


Cult - Full Tilt - текст песни, таба, видео

Регистрация Запомнить меня
Войти через:  Facebook Google Twitter Vk Yandex Mail.ru

Cult - Full Tilt - текст песни, таба, видео

Печатать
Просмотров: 111
Intro:===============================================================================

E--4-5--4-5--7-8--9--9--10-9--------4-5--4-5--2-3------------------
B--5-5--5-5--8-8--10-10-10-10-------5-5--5-5--3-3------------------
G--4-4--4-4--7-7--9--9--9--9--------4-4--4-4--2-2------------------
D---------------------------------------------------2p0------------
A--------------------------------------------------------2p0-------
E-------------------------------------------------------------3p0--

E--4-5--4-5--7-8--9--9--10-9--------------------------------------------------
B--5-5--5-5--8-8--10-10-10-10---------------------------3-3-3-----------------
G--4-4--4-4--7-7--9--9--9--9---9-9-9-9-9-9-9-9-9--------2-2-2-2-2-2-----------
D------------------------------9-9-9-9-9-9-9-9-9--------0-0-0-2-2-2-5-5-5-2-2-
A------------------------------7-7-7-7-7-7-7-7-7--------------0-0-0-5-5-5-2-2-
E------------------------------0-0-0-0-0-0-0-0-0--------------------3-3-3-0-0-
                                                                            
E------------------------------I I I---------
B--3-3-3-------3-3-3-----------I I I---------
G--2-2-2-2-2-2-2-2-2-----------I%I%I--7-6-7--
D--0-0-0-2-2-2-0-0-0-5-5-5-2-2-I I I--7-6-7--
A--------0-0-0-------5-5-5-2-2-I I I--5-4-5--
E--------------------3-3-3-0-0-I I I---------
                     oh yeah!!.....

singing lines:==============================================================

E--4-5--4-5--7-8--9--9--10-9--------4-5--4-5--2-3------------------
B--5-5--5-5--8-8--10-10-10-10-------5-5--5-5--3-3------------------
G--4-4--4-4--7-7--9--9--9--9--------4-4--4-4--2-2------------------
D---------------------------------------------------2p0------------
A--------------------------------------------------------2p0-------
E-------------------------------------------------------------3p0--
   don't.....

E--4-5--4-5--7-8--9--9--10-9--------4-5--4-5--2-3------------
B--5-5--5-5--8-8--10-10-10-10-------5-5--5-5--3-3------------
G--4-4--4-4--7-7--9--9--9--9--------4-4--4-4--2-2---2-2-3-4--
D---------------------------------------------------2-2-3-4--
A---------------------------------------------------0-0-1-2--
E------------------------------------------------------------

pre chorus================================================

E------------------------------------------------------------------------------------
B----------------------3--3--3--3-----------------------------------------3------3---
G-4--4--4--4--4--4--4--2--2--2--2--2--2--2--4--4--4--4--4--4--4-----------2------2-4-
D-4--4--4--4--4--4--4--0--0--0--0--2--2--2--4--4--4--4--4--4--4--2------2-0------0-4-
A-2--2--2--2--2--2--2--------------0--0--0--2--2--2--2--2--2--2--2------2----------2-
E----------------------------------------------------------------0------0------------
  oh my dreams....
                                                                   
E-----------------------------------------------------------------------------
B--------------------3--3--3--3--------------------------------3-3-3-3-3-3-3--
G--4--4--4--4--4--4--2--2--2--2--2--2--2--4--4--4--4--4--4--4--2-2-2-2-2-2-2--
D--4--4--4--4--4--4--0--0--0--0--2--2--2--4--4--4--4--4--4--4--0-0-0-0-0-0-0--
A--2--2--2--2--2--2--------------0--0--0--2--2--2--2--2--2--2-----------------
E-----------------------------------------------------------------------------

chorus:==============================================================

E-0----0--------------------------------0-0---------------------------------
B-0----0--------3-3-3-------3-3-3-------0-0---------3-3-3-------3-3-3-------
G-9----9--------2-2-2-2-2-2-2-2-2-------9-9---------2-2-2-2-2-2-2-2-2-------
D-9----9--------0-0-0-2-2-2-0-0-0-5-5-5-9-9---------0-0-0-2-2-2-0-0-0-5-5-5-
A-7----7--------------0-0-0-------5-5-5-7-7---------------0-0-0-------5-5-5-
E-0----0--------------------------3-3-3-0-0---------------------------3-3-3-
  Full tilt                     i'm finally here

E-0----0--------------------------------0-0------------------------
B-0----0--------3-3-3-------3-3-3-------0-0------------------------
G-9----9--------2-2-2-2-2-2-2-2-2-------9-9-----------------7-6-7--
D-9----9--------0-0-0-2-2-2-0-0-0-5-5-5-9-9-----------------7-6-7--
A-7----7--------------0-0-0-------5-5-5-7-7-----------------5-4-5--
E-0----0--------------------------3-3-3-0-0------------------------
  Full tilt                      i'm in love with that shit   
==================================================================================
repeats singing lines
repeats pre chorus
repeats chorus 2 times
solo over pre chorus

solo 2nd part-2ND GUITAR========================================

E------------------------------------------
B------------------------------------------
G--9-7-9---------------------9-7-9--------- repeat until solo end  
D--9-7-9---------------------9-7-9---------
A--7-5-7---------------------7-5-7---------
E------------------------------------------
                                                    
E----------
B----------
G----9-7--- right in the end of solo/
D----9-7---
A--0-7-5---
E----------
=============================================================================================
E--4-5--4-5--7-8--9--9--10-9--------4-5--4-5--2-3------------------
B--5-5--5-5--8-8--10-10-10-10-------5-5--5-5--3-3------------------
G--4-4--4-4--7-7--9--9--9--9--------4-4--4-4--2-2------------------
D---------------------------------------------------2p0------------
A--------------------------------------------------------2p0-------
E-------------------------------------------------------------3p0--
   don't.....

E--4-5--4-5--7-8--9--9--10-9-------------------------------------------------
B--5-5--5-5--8-8--10-10-10-10------------------------------------------------
G--4-4--4-4--7-7--9--9--9--9--------9-9-9-9-9-9-9-9-9-9-9-9-9-9-9-9-9-9-9-9--
D-----------------------------------9-9-9-9-9-9-9-9-9-9-9-9-9-9-9-9-9-9-9-9--
A-----------------------------------7-7-7-7-7-7-7-7-7-7-7-7-7-7-7-7-7-7-7-7--
E-----------------------------------0-0-0-0-0-0-0-0-0-0-0-0-0-0-0-0-0-0-0-0--
                                  pm= = = = = = = = = = = = = = = = = = = =  do it!

last riff====================================================================

E------------------------------------------
B------------------------------------------
G-----------------------7-7-7-------7-7-7-- repeats too many times
D------------5-5--------7-7-7-7-7-7-7-7-7--
A--7p5---5-7-----7-7----5-5-5-7-7-7-5-5-5--
E------7----------------------5-5-5--------
end======================================================================================
E--------------------
B--------------------
G--7-7-----------9---
D--7-7----7-7----9---
A--5-5----7-7----7---
E---------5-5----0---
Добавлено: 17.09.2015
Другие материалы по этой песне:
  • Аккорды и текст

Страница создана 22.05.2012
http://primanota.ru/cult/full-tilt-chords.htm
Привет, Гость.
Предлагаем пройти революционный курс по гитаре.
Подарок от PrimaNota.Ru, забирай!